PrimaNota.ru - самый крупный в мире бесплатный архив песенных текстов, аккордов, табулатур и нот


Rage Against The Machine - Guerrilla Radio - аккорды и текст, таба, бас-таба, драм-таба, видео

Регистрация Запомнить меня
Войти через:  Facebook Google Twitter Vk Yandex Mail.ru

Rage Against The Machine - Guerrilla Radio - аккорды и текст, таба, бас-таба, драм-таба, видео

Печатать
Просмотров: 339
Уроки эстрадного вокала в Санкт-Петербурге
Авторы: Tom Morello, Tim Commerford, Zack de la Rocha, Brad Wilk

Guerrilla Radio
Rage Against The Machine
		   Song: Guerrilla Radio
Artist: Rage Against the Machine
Album: The Battle of Los Angeles
Transcribed by: AlEjAnDrO LeDeSmA |ajledesma@infovia.com.ar or juggnot@yahoo.com|
Tunning: Standard

I know that there are a lot of tabs of this song going on, but anyway, i felt like posting mine...
Well, there are at least two guitars on this song...and a lot of fx!

tab symbos:
/= slide down
\= slide up
h= hammer on
()= optional note
b= bend note to et the note indicated
r= release bending
p.m.= palm muted (also as ^)

intro (gtr 1)
e|----------------------|
B|----------------------|
G|----------------(7-9)-|
D|-(7-9-9-7-9-7-9)-7-9--|
A|--7-9-9-7-9-7-9-------|
E|----------------------|

intro (gtr 2) it's like palm muted, or with a strange fx...listen and you'll se
e|----------------------------|
B|----------------------------|
G|----------------------------|
D|--9-9-9-9-9-9-9-9-9-9-9-9-9-|
A|--9-9-9-9-9-9-9-9-9-9-9-9-9-|
E|----------------------------|

heavy intro/ chorus
e|--------------------|
B|--------------------|
G|--------------------|
D|--2-4-4-2-4-2-4-7-9-|
A|--2-4-4-2-4-2-4-7-9-|
E|--0-2-2-0-2-0-2-5-7-|

heavy intro/ chorus ending
e|------------------|
B|------------------|
G|--9-------9-------|
D|--9-7-7-7-9-7-7-7-|
A|------------------|
E|------------------|

verse (with wah wah)
e|------|
B|------|
G|--11b-|
D|--11b-|
A|------|
E|------|

interlude gtr 1(-p.m. or rake-...and fx) make the slides slowly
e|----------|
B|--19/1\19-|
G|--19/1\19-|
D|----------|
A|----------|
E|----------|
interlude gtr 2
e|----------------------|
B|----------------------|
G|----------------(7-9)-|
D|-(7-9-9-7-9-7-9)-7-9--|
A|--7-9-9-7-9-7-9-------|
E|----------------------|

interlude gtr 3 (starts at 2nd time of guitar 1)
e|--------------------|
B|--------------------|
G|--------------------|
D|--2-4-4-2-4-2-4-7-9-|
A|--2-4-4-2-4-2-4-7-9-|
E|--0-2-2-0-2-0-2-5-7-|

solo                       (rake and fx)
e|--14-12-14-12-14-17-(x3)-17-17-17-17-17-|
B|-------------------------17-17-17-17-17-|
G|----------------------------------------|
D|----------------------------------------|
A|----------------------------------------|
E|----------------------------------------|

e|--14-12-14-(12)-17b19(r17)-17-14-12-(x3)-|
B|-----------------------------------------|
G|-----------------------------------------|
D|-----------------------------------------|
A|-----------------------------------------|
E|-----------------------------------------|
i'm not 100% sure about this some fx and2 guitars for sure, but im not sure
e|--14b-12b-14b-17b-15b-|
B|----------------------|
G|----------------------|
D|----------------------|
A|----------------------|
E|----------------------|

ending: there are two ways, i can't distinguish which one is the correct one
e|-----------------------------------------------|
B|-----------------------------------------------|
G|---------------------------------x-x-x-x-x-x-x-|
D|--4-4-4-----4-4-4-----4-4-4------x-x-x-x-x-x-x-|
A|--4-4-4-12/-4-4-4-12/-4-4-4-12/--x-x-x-x-x-x-x-|
E|--0h2-0-12/-0h2-0-12/-0h2-0-12/--x-x-x-x-x-x-x-|
or
e|-----------------------------------------------|
B|-----------------------------------------------|
G|---------------------------------x-x-x-x-x-x-x-|
D|--4-4-4-----4-4-4-----4-4-4------x-x-x-x-x-x-x-|
A|--4-4-4-12/-4-4-4-12/-4-4-4-12/--x-x-x-x-x-x-x-|
E|--0h2-2-12/-0h2-2-12/-0h2-2-12/--x-x-x-x-x-x-x-|
        ^         ^         ^
       p.m.      p.m.      p.m.

i know it not 100% correct, but it's for sure a good start...
See ya!

                Complains, request for other tabs, questions:
     |~~~~~~~~~~~~~~~~~~~~~~~~~~~~~~~~~~~~~~~~~~~~~~~~~~~~~~~~~~~~~~~~~~~~~~~~|
     |---------------------------Alejandro Ledesma----------------------------|
     |--------------------------juggnot@yahoo.com.ar--------------------------|
     |-----------------------------icq: 57681056------------------------------|
     |------------------------buenos aires, argentina-------------------------|
     |----------------------------------2002----------------------------------|
     |~~~~~~~~~~~~~~~~~~~~~~~~~~~~~~~~~~~~~~~~~~~~~~~~~~~~~~~~~~~~~~~~~~~~~~~~|     
Добавлено: 23.10.2013
Другие материалы по этой песне:

Страница создана 23.02.2012
http://primanota.ru/rage-against-the-machine/guerrilla-radio-chords.htm
Привет, Гость.
Предлагаем пройти революционный курс по гитаре.
Подарок от PrimaNota.Ru, забирай!