PrimaNota.ru - самый крупный в мире бесплатный архив песенных текстов, аккордов, табулатур и нот


Racer X - Into The Night - текст песни, таба, видео

Регистрация Запомнить меня
Войти через:  Facebook Google Twitter Vk Yandex Mail.ru

Racer X - Into The Night - текст песни, таба, видео

Печатать
Просмотров: 189
Авторы музыки: Paul Gilbert, Jeff Martin
Авторы текста: Paul Gilbert, Jeff Martin


-------------------------------------------------------------------------------
			     INTO THE NIGHT - RACER X
-------------------------------------------------------------------------------
Tabbed by:bob
Email: bigdawgdaddy1970@yahoo.com

Tuning:Standard

e|------------------------------------------------------87---7p5-----------------|
B|--------------------------------------------------------87----74---------------|
G|975----------------754------------------------------------5-----4------------|
D|---975-- 7-------7----754---5-------5-4--7-9--9--9--9-----------------------|
A|------97 5-------5-------75-3-------3-2--5-7--7--7--7-----------------------|
E|----------0-000-0------------0-000-0--------00-00-00----------------------------|



e|87----7p5- 5p3-------------------------------------------------------------------|
B|--87---- 7----5------------------------------------------------------------------|
G|----5----------5p4-------------------------------------------------------------|
D|---------------------------------------------------------------------------|
A|---------------------------------------------------------------------------|
E|---------------------------------------------------------------------------|


Verse is same as into
This is my first attempt at a tab so I hope it helps....I knows its close...Good Luck with the solo...


Добавлено: 28.09.2013
Другие материалы по этой песне:

Страница создана 24.02.2012
http://primanota.ru/racer-x/into-the-night-chords.htm
Привет, Гость.
Предлагаем пройти революционный курс по гитаре.
Подарок от PrimaNota.Ru, забирай!