PrimaNota.ru - самый крупный в мире бесплатный архив песенных текстов, аккордов, табулатур и нот


Quincy Jones - Austin Powers Theme - бас-таба, видео

Регистрация Запомнить меня
Войти через:  Facebook Google Twitter Vk Yandex Mail.ru

Quincy Jones - Austin Powers Theme - бас-таба, видео

Печатать
Просмотров: 183
-------------------------------------------------------------------------------
           Soul Bossa Nova Austin Powers Theme Song - Quincy Jones
-------------------------------------------------------------------------------
Tabbed by: Sarah Becker


Tuning: Standard (E.A.D.G)

G|---------------------------------------------------------------------------|
D|---------------------------------------------------------------------------|
A|---------------------------------------------------------------------------|
E|---------------------------------------------------------------------------|
   1 + 2 + 3 + 4 + 1 + 2 + 3 + 4 + 1 + 2 + 3 + 4 + 1 + 2 + 3 + 4 +

G|---------------------------------------------------------------------------|
D|---------------------------------------------------------------------------|
A|-1~~~~~1~1~~~~~~~1~~~~~1~1~~~~~~~1~~~~~1~1~~~~~~~1~~~~~1~1~~~~~~~----------|
E|---------------------------------------------------------------------------|
   1 + 2 + 3 + 4 + 1 + 2 + 3 + 4 + 1 + 2 + 3 + 4 + 1 + 2 + 3 + 4 +

G|---------------------------------------------------------------------------|
D|---------------------------------------------------------------------------|
A|-1~~~~~1~1~~~~~~~1~~~~~1~1~~~~~~~------------------------------------------|
E|---------------------------------1~~~--1~1~~~--1~1~~~1~~~------------------|
   1 + 2 + 3 + 4 + 1 + 2 + 3 + 4 + 1 + 2 + 3 + 4 + 1 + 2 + 3 + 4 +

G|---------------------------------------------------------------------------|
D|---------------------------------------------------------------------------|
A|-1~~~~~1~--------1~~~~~1~--------1~~~~~1~--------1~~~~~1~------------------|
E|---------1~~~~~~~--------1~~~~~~~--------1~~~~~~~--------1~~~~~~~----------|
   1 + 2 + 3 + 4 + 1 + 2 + 3 + 4 + 1 + 2 + 3 + 4 + 1 + 2 + 3 + 4 +

G|---------------------------------------------------------------------------|
D|-1~~~~~1~--------1~~~~~1~--------------------------------------------------|
A|---------1~~~~~~~--------1~~~~~~~1~~~~~1~----------------------------------|
E|-----------------------------------------1~~~~~~~3~~~~~3~3~~~~~~~----------|
   1 + 2 + 3 + 4 + 1 + 2 + 3 + 4 + 1 + 2 + 3 + 4 + 1 + 2 + 3 + 4 +

G|---------------------------------------------------------------------------|
D|---------------------------------------------------------------------------|
A|-3~~~~~3~3~~~~~~~----------3~2~2~1~~~~~1~--------1~~~~~1~------------------|
E|-----------------1~~~~~1~1~--------------1~~~~~1~--------1~~~~~1~----------|
   1 + 2 + 3 + 4 + 1 + 2 + 3 + 4 + 1 + 2 + 3 + 4 + 1 + 2 + 3 + 4 +

G|---------------------------------------------------------------------------|
D|---------------------------------------------------------------------------|
A|-1~~~~~1~--------1~~~~~1~--------1~~~~~1~--------1~~~~~1~------------------|
E|---------1~~~~~~~--------1~~~~~~~--------1~~~~~~~--------1~~~~~~~----------|
   1 + 2 + 3 + 4 + 1 + 2 + 3 + 4 + 1 + 2 + 3 + 4 + 1 + 2 + 3 + 4 +

G|---------------------------------------------------------------------------|
D|-1~~~~~1~--------1~~~~~1~--------------------------------------------------|
A|---------1~~~~~~~--------1~~~~~~~1~~~~~1~----------------------------------|
E|-----------------------------------------1~~~~~~~3~~~~~3~3~~~~~~~----------|
   1 + 2 + 3 + 4 + 1 + 2 + 3 + 4 + 1 + 2 + 3 + 4 + 1 + 2 + 3 + 4 +

G|---------------------------------------------------------------------------|
D|---------------------------------------------------------------------------|
A|-3~~~~~3~3~~~~~~~----------3~2~2~1~~~~~1~--------1~~~~~1~1~~~~~~~----------|
E|-----------------1~~~~~1~1~--------------1~~~~~~~--------------------------|
   1 + 2 + 3 + 4 + 1 + 2 + 3 + 4 + 1 + 2 + 3 + 4 + 1 + 2 + 3 + 4 +

G|---------------------------------------------------------------------------|
D|---------------------------------------------------------------------------|
A|---------------------------------------------------------------------------|
E|-1~~~~~1~1~~~~~~~3~~~~~3~3~~~~~~~1~~~~~1~1~~~~~~~3~~~~~3~3~~~~~~~----------|
   1 + 2 + 3 + 4 + 1 + 2 + 3 + 4 + 1 + 2 + 3 + 4 + 1 + 2 + 3 + 4 +

G|---------------------------------------------------------------------------|
D|-------------------------------------------0~1~2~3~~~----------------------|
A|---------------------------0~1~2~3~~~~~3~3~--------------------------------|
E|-1~~~~~1~1~~~~~~~3~~~~~3~3~--------------------------1~~~~~~~~~~~----------|
   1 + 2 + 3 + 4 + 1 + 2 + 3 + 4 + 1 + 2 + 3 + 4 + 1 + 2 + 3 + 4 +

G|---------------------------------------------------------------------------|
D|---------------------------------------------------------------------------|
A|-1~~~~~1~--------1~~~~~1~--------1~~~~~1~--------1~~~~~1~------------------|
E|---------1~~~~~~~--------1~~~~~~~--------1~~~~~~~--------1~~~~~~~----------|
   1 + 2 + 3 + 4 + 1 + 2 + 3 + 4 + 1 + 2 + 3 + 4 + 1 + 2 + 3 + 4 +

G|---------------------------------------------------------------------------|
D|-1~~~~~1~--------1~~~~~1~--------------------------------------------------|
A|---------1~~~~~~~--------1~~~~~~~1~~~~~1~----------------------------------|
E|-----------------------------------------1~~~~~~~3~~~~~3~3~~~~~~~----------|
   1 + 2 + 3 + 4 + 1 + 2 + 3 + 4 + 1 + 2 + 3 + 4 + 1 + 2 + 3 + 4 +

G|---------------------------------------------------------------------------|
D|---------------------------------------------------------------------------|
A|-3~~~~~3~3~~~~~~~----------3~2~2~1~~~~~1~--------1~~~~~1~1~~~~~~~----------|
E|-----------------1~~~~~1~1~--------------1~~~~~~~--------------------------|
   1 + 2 + 3 + 4 + 1 + 2 + 3 + 4 + 1 + 2 + 3 + 4 + 1 + 2 + 3 + 4 +

G|---------------------------------------------------------------------------|
D|---------1~~~~~~~--------1~~~~~1~--------1~~~~~~~--------1~~~~~1~----------|
A|-1~~~~~1~--------1~~~~~1~--------1~~~~~1~--------1~~~~~1~------------------|
E|---------------------------------------------------------------------------|
   1 + 2 + 3 + 4 + 1 + 2 + 3 + 4 + 1 + 2 + 3 + 4 + 1 + 2 + 3 + 4 +

G|---------------------------------------------------------------------------|
D|---------1~~~~~~~--------1~~~~~1~--------1~~~~~1~--------------------------|
A|-1~~~~~1~--------1~~~~~1~--------1~~~~~1~--------1~~~----------------------|
E|---------------------------------------------------------------------------|
   1 + 2 + 3 + 4 + 1 + 2 + 3 + 4 + 1 + 2 + 3 + 4 + 1 + 2 + 3 + 4 +

G|---------------------------------------------------------------------------|
D|-1~~~~~1~--------1~~~~~1~1~~~~~1~------------------------------------------|
A|---------1~~~~~1~----------------1~~~~~1~--------1~~~~~1~------------------|
E|-----------------------------------------1~~~~~1~--------1~~~~~1~----------|
   1 + 2 + 3 + 4 + 1 + 2 + 3 + 4 + 1 + 2 + 3 + 4 + 1 + 2 + 3 + 4 +

G|---------------------------------------------------------------------------|
D|-3~~~~~3~3~~~~~3~1~~~~~1~1~~~~~1~------------------------------------------|
A|---------------------------------1~~~~~1~--------1~~~~~1~1~~~~~~~----------|
E|-----------------------------------------1~~~~~1~--------------------------|
   1 + 2 + 3 + 4 + 1 + 2 + 3 + 4 + 1 + 2 + 3 + 4 + 1 + 2 + 3 + 4 +

G|---------------------------------------------------------------------------|
D|---------------------------------------------------------------------------|
A|---------------------------------------------------------------------------|
E|-1~~~~~1~1~~~~~~~3~~~~~3~3~~~~~~~1~~~~~1~1~~~~~~~3~~~~~3~3~~~~~~~----------|
   1 + 2 + 3 + 4 + 1 + 2 + 3 + 4 + 1 + 2 + 3 + 4 + 1 + 2 + 3 + 4 +

G|---------------------------------------------------------------------------|
D|-------------------------------------------0~1~2~3~~~----------------------|
A|---------------------------0~1~2~3~~~~~3~3~--------------------------------|
E|-1~~~~~1~1~~~~~~~3~~~~~3~3~--------------------------1~~~~~~~~~~~----------|
   1 + 2 + 3 + 4 + 1 + 2 + 3 + 4 + 1 + 2 + 3 + 4 + 1 + 2 + 3 + 4 +

G|---------------------------------------------------------------------------|
D|---------------------------------------------------------------------------|
A|-1~~~~~1~--------1~~~~~1~--------1~~~~~1~--------1~~~~~1~------------------|
E|---------1~~~~~~~--------1~~~~~~~--------1~~~~~~~--------1~~~~~~~----------|
   1 + 2 + 3 + 4 + 1 + 2 + 3 + 4 + 1 + 2 + 3 + 4 + 1 + 2 + 3 + 4 +

G|---------------------------------------------------------------------------|
D|-1~~~~~1~--------1~~~~~1~--------------------------------------------------|
A|---------1~~~~~~~--------1~~~~~~~1~~~~~1~----------------------------------|
E|-----------------------------------------1~~~~~~~3~~~~~3~3~~~~~~~----------|
   1 + 2 + 3 + 4 + 1 + 2 + 3 + 4 + 1 + 2 + 3 + 4 + 1 + 2 + 3 + 4 +

G|---------------------------------------------------------------------------|
D|---------------------------------------------------------------------------|
A|-3~~~~~3~3~~~~~~~----------3~2~2~1~~~~~1~--------1~~~~~1~1~~~~~~~----------|
E|-----------------1~~~~~1~1~--------------1~~~~~~~--------------------------|
   1 + 2 + 3 + 4 + 1 + 2 + 3 + 4 + 1 + 2 + 3 + 4 + 1 + 2 + 3 + 4 +

G|---------------------------------------------------------------------------|
D|---------1~~~~~~~--------1~~~~~1~--------1~~~~~~~--------1~~~~~1~----------|
A|-1~~~~~1~--------1~~~~~1~--------1~~~~~1~--------1~~~~~1~------------------|
E|---------------------------------------------------------------------------|
   1 + 2 + 3 + 4 + 1 + 2 + 3 + 4 + 1 + 2 + 3 + 4 + 1 + 2 + 3 + 4 +

G|---------------------------------------------------------------------------|
D|---------1~~~~~~~--------1~~~~~1~--------1~~~~~~~--------1~~~~~1~----------|
A|-1~~~~~1~--------1~~~~~1~--------1~~~~~1~--------1~~~~~1~------------------|
E|---------------------------------------------------------------------------|
   1 + 2 + 3 + 4 + 1 + 2 + 3 + 4 + 1 + 2 + 3 + 4 + 1 + 2 + 3 + 4 +

G|---------------------------------------------------|
D|---------------------------------------------------|
A|-1~~~2~~~2~~~2~~~2~~~2~2~2~2~2~2~1~~~1~~~----------|
E|---------------------------------------------------|
   1 + 2 + 3 + 4 + 1 + 2 + 3 + 4 + 1 + 2 + 3 + 4 + 


| /  slide up
| \  slide down
| h  hammer-on
| p  pull-off
| ~  vibrato
| +  harmonic
| x  Mute note
===============================================================================
Добавлено: 08.08.2015
Вам также может быть интересно:
Другие материалы по этой песне:
  • Аккорды и текст

Страница создана 08.08.2015
http://primanota.ru/quincy-jones/austin-powers-theme-chords.htm
Привет, Гость.
Предлагаем пройти революционный курс по гитаре.
Подарок от PrimaNota.Ru, забирай!