PrimaNota.ru - самый крупный в мире бесплатный архив песенных текстов, аккордов, табулатур и нот


Quincy Jones - Streetbeater - таба, видео

Регистрация Запомнить меня
Войти через:  Facebook Google Twitter Vk Yandex Mail.ru

Quincy Jones - Streetbeater - таба, видео

Печатать
Просмотров: 317
Уроки эстрадного вокала в Санкт-Петербурге
		   Subject: j/jones_quincy/streetbeater.tab

"Streetbeater" by Quincy Jones
(also the Sanford and Son Theme)

tabbed by James Eddy jpeddy@wspice.com
Updated by Sean Barth toussaint79@hotmail.com


Here is an update to the previous posting of The Streetbeater tab.
I think this sounds more like it...

It is actually in the key of G-major.
You can play C pentatonic in between choruses
to keep it sounding greasy...

Head:

e-----------------------------------
b-----------------------------------
g---------9-7---------9-7-----------
d-------------------------8/9-------
a--10-10-------10-10-----------10---
E-----------------------------------

e-----------------------------------
b-----------------------------------
g-----------------7-----------------
d---------9-7---9---9-7-------------
a--10-10-----------------8/9--------
E------------------------------10---

e-----------------------------------
b-----------------------------------
g----------------------7~-----------
d-----------------8-10--------------
a-------7-10-10-7-------------------
E-10-10-----------------------------


e-----------------------------------
b----------8------------------------
g--------------10---9---7~----------
d----7-8-9---9----9---9-------------
a-10--------------------------------
E-----------------------------------

variation / (Ending)*

e-----------------------------------
b-----------------------------------
g---------9-7---------9-7-----------
d-------------------------8/9-------
a--10-10-------10-10-----------10---
E-----------------------------------

e-----------------------------------
b-----------------------------------
g-------------------8-7~------------
d---------7-10-10-7------(10)*------
a--10-10----------------------------
E-----------------------------------


Bass

(repeat throughout whole song)
g------------------------------------
d--9-----------7--8-9----------7--8--
a---7----10----------7----10---------
E------------------------------------

_________________________________________________________________
     
Добавлено: 23.07.2013
Другие материалы по этой песне:
  • Аккорды и текст

Страница создана 23.07.2013
http://primanota.ru/quincy-jones/streetbeater-chords.htm
Привет, Гость.
Предлагаем пройти революционный курс по гитаре.
Подарок от PrimaNota.Ru, забирай!