PrimaNota.ru - самый крупный в мире бесплатный архив песенных текстов, аккордов, табулатур и нот


Queensryche - I Am I - аккорды и текст, таба, видео

Регистрация Запомнить меня
Войти через:  Facebook Google Twitter Vk Yandex Mail.ru

Queensryche - I Am I - аккорды и текст, таба, видео

Печатать
Просмотров: 155
Авторы музыки: Chris DeGarmo, Geoff Tate

I Am I
Queensryche
		   I AM I
As recorded by Queensryche
(From the 1994 Album PROMISED LAND)


Transcribed by C Thomas

Words and Music by Chris DeGarmo, Geoff Tate
Arranged by Chris DeGarmo, Geoff Tate


Gtr I (E A D G B E) - 'Mandolin'
Gtr II (E A D G B E) - 'Dist'
Gtr III (E A D G B E) - 'Dist'
Gtr IV (E A D G B E) - 'Dist w/ Floyd Rose Tremolo'


             Intro
  Q=135
 3/4
  Gtr I
  Wx2         E  E E E  +E  E   E  E E E +E  E
|----------||-0--0-0-0--(0)-0-|-0--0-0-0-(0)-0-|
|----------||-4--4-4-4--(4)-4-|-5--5-5-5-(5)-5-|
|----------||-----------------|----------------|
|----------||-----------------|----------------|
|----------||-----------------|----------------|
|----------||-----------------|----------------|
|
| Gtrs II, III
| Wx2         Q.     Q.         H.
|----------||-----------------|----------------|
|----------||-----------------|----------------|
|----------||-----------------|----------------|
|----------||-1------1--------|-2--------------|
|----------||-0------0--------|-0--------------|
|----------||-----------------|----------------|


   E  E E E +E  E    E  E   E  +E  E +E
|--0--0-0-0-(0)-0-|--0--0---0--(0)-0-(0)-|
|--5--5-5-5-(5)-5-|--5--5-/10-(10)-8-(8)-|
|-----------------|----------------------|
|-----------------|----------------------|
|-----------------|----------------------|
|-----------------|----------------------|
|
| +H.               +H.
|-----------------|----------------------|
|-----------------|----------------------|
|-----------------|----------------------|
|-(2)-------------|-(2)------------------|
|-(0)-------------|-(0)------------------|
|-----------------|----------------------|


   E  E E E +E  E   E  E E E +E  E    E  E E E +E  E    E  E E E +E  E
|--0--0-0-0-(0)-0-|-0--0-0-0-(0)-0-|--0--0-0-0-(0)-0-|--0--0-0-0-(0)-0-|
|--2--2-2-2-(2)-2-|-4--4-4-4-(4)-4-|--4--4-4-4-(4)-4-|--4--4-4-4-(4)-4-|
|-----------------|----------------|-----------------|-----------------|
|-----------------|----------------|-----------------|-----------------|
|-----------------|----------------|-----------------|-----------------|
|-----------------|----------------|-----------------|-----------------|
|
| +H.               H.               +H.               +H.
|-----------------|----------------|-----------------|-----------------|
|-----------------|----------------|-----------------|-----------------|
|-----------------|----------------|-----------------|-----------------|
|-(2)-------------|-1--------------|-(1)-------------|-(1)-------------|
|-(0)-------------|----------------|-----------------|-----------------|
|-----------------|----------------|-----------------|-----------------|


  E  E E E +E  E   E  E E E +E  E    E  E E E +E  E    E  E   E  +E  E +E
|-0--0-0-0-(0)-0-|-0--0-0-0-(0)-0-|--0--0-0-0-(0)-0-|--0--0---0--(0)-0-(0)-|
|-5--5-5-5-(5)-5-|-5--5-5-5-(5)-5-|--5--5-5-5-(5)-5-|--5--5-/10-(10)-8-(8)-|
|----------------|----------------|-----------------|----------------------|
|----------------|----------------|-----------------|----------------------|
|----------------|----------------|-----------------|----------------------|
|----------------|----------------|-----------------|----------------------|
|
| H.               H.               +H.               +H.
|----------------|----------------|-----------------|----------------------|
|----------------|-2--------------|-(2)-------------|----------------------|
|----------------|-2--------------|-(2)-------------|-(2)------------------|
|-2--------------|-2--------------|-(2)-------------|-(2)------------------|
|-0--------------|-0--------------|-(0)-------------|-(0)------------------|
|----------------|----------------|-----------------|----------------------|


   E  E E E +E  E   E  E E E +E  E    E  E E E +E  E    E  E  E  E +E  E
|--0--0-0-0-(0)-0-|-0--0-0-0-(0)-0-|--0--0-0-0-(0)-0-|--0--0--0--0-(0)-0-|
|--2--2-2-2-(2)-2-|-4--4-4-4-(4)-4-|--4--4-4-4-(4)-4-|--4--4--4--4-(4)-4-|
|-----------------|----------------|-----------------|-------------------|
|-----------------|----------------|-----------------|-------------------|
|-----------------|----------------|-----------------|-------------------|
|-----------------|----------------|-----------------|-------------------|
|
| +H.               H.               +H.               +Q     Q     Q
|-----------------|----------------|-----------------|-------------------|
|-----------------|----------------|-----------------|-------------------|
|-(2)-------------|----------------|-----------------|-------------------|
|-(2)-------------|-1--------------|-(1)-------------|-(1)---(1)---(1)---|
|-(0)-------------|----------------|-----------------|--------------1----|
|-----------------|----------------|-----------------|--------0----------|


  Gtrs II, III
                                                   ~
  E E E E E E   E E E E E E   E E E E E E   E E Q  Q
|-------------|-------------|-------------|-----------|
|-------------|-------------|-------------|-----------|
|-2-2---2-2-2-|-2-2---2-2-2-|-2-2---2-2-2-|-2-2-------|
|-2-2---2-2-2-|-2-2---2-2-2-|-2-2---2-2-2-|-2-2-------|
|-0-0---0-0-0-|-0-0---0-0-0-|-0-0---0-0-0-|-0-0----1--|
|-------------|-------------|-------------|-----0-----|


                                                   ~
  E E E E E E   E E E E E E   E E E E E E   E E Q  Q
|-------------|-------------|-------------|-----------||
|-------------|-------------|-------------|-----------||
|-2-2---2-2-2-|-2-2---2-2-2-|-2-2---2-2-2-|-2-2-------||
|-2-2---2-2-2-|-2-2---2-2-2-|-2-2---2-2-2-|-2-2-------||
|-0-0---0-0-0-|-0-0---0-0-0-|-0-0---0-0-0-|-0-0----1--||
|-------------|-------------|-------------|-----0-----||


 1st and 2nd Verse
  $
                                                   ~
  E E E E E E   E E E E E E   E E E E E E   E E Q  Q
|-------------|-------------|-------------|-----------|
|-------------|-------------|-------------|-----------|
|-2-2---2-2-2-|-2-2---2-2-2-|-2-2---2-2-2-|-2-2-------|
|-2-2---2-2-2-|-2-2---2-2-2-|-2-2---2-2-2-|-2-2-------|
|-0-0---0-0-0-|-0-0---0-0-0-|-0-0---0-0-0-|-0-0----1--|
|-------------|-------------|-------------|-----0-----|


                                                   ~
  E E E E E E   E E E E E E   E E E E E E   E E Q  Q
|-------------|-------------|-------------|-----------|
|-------------|-------------|-------------|-----------|
|-2-2---2-2-2-|-2-2---2-2-2-|-2-2---2-2-2-|-2-2-------|
|-2-2---2-2-2-|-2-2---2-2-2-|-2-2---2-2-2-|-2-2-------|
|-0-0---0-0-0-|-0-0---0-0-0-|-0-0---0-0-0-|-0-0----1--|
|-------------|-------------|-------------|-----0-----|


                                                   ~
  E E E E E E   E E E E E E   E E E E E E   E E Q  Q
|-------------|-------------|-------------|-----------|
|-------------|-------------|-------------|-----------|
|-2-2---2-2-2-|-2-2---2-2-2-|-2-2---2-2-2-|-2-2-------|
|-2-2---2-2-2-|-2-2---2-2-2-|-2-2---2-2-2-|-2-2-------|
|-0-0---0-0-0-|-0-0---0-0-0-|-0-0---0-0-0-|-0-0----1--|
|-------------|-------------|-------------|-----0-----|


                                              To Coda
                                                   ~
  E E E E E E   E E E E E E   E E E E E E   E E Q  Q
|-------------|-------------|-------------|-----------|
|-------------|-------------|-------------|-----------|
|-2-2---2-2-2-|-2-2---2-2-2-|-2-2---2-2-2-|-2-2-------|
|-2-2---2-2-2-|-2-2---2-2-2-|-2-2---2-2-2-|-2-2-------|
|-0-0---0-0-0-|-0-0---0-0-0-|-0-0---0-0-0-|-0-0----1--|
|-------------|-------------|-------------|-----0-----|


                                          ~
  H.        +H.        +H.        +Q   Q  Q
|---------|----------|----------|------------|
|---------|----------|----------|------------|
|---------|----------|----------|------------|
|-5-------|-(5)------|-(5)------|-(5)--------|
|-5-------|-(5)------|-(5)------|-(5)-----1--|
|-3-------|-(3)------|-(3)------|-(3)--0-----|


                                          D.S. al Coda
  E E E E E E   E E E E E E   E E E E E E   E E E E E E
|-------------|-------------|-------------|-------------|
|-------------|-------------|-------------|-------------|
|-2-2---2-2-2-|-2-2---2-2-2-|-2-2---2-2-2-|-2-2---------|
|-2-2---2-2-2-|-2-2---2-2-2-|-2-2---2-2-2-|-2-2---------|
|-0-0---0-0-0-|-0-0---0-0-0-|-0-0---0-0-0-|-0-0-----1p0-|
|-------------|-------------|-------------|-----0-0-----|


  &
  H.        +H.        +H.        +H.
|---------|----------|----------|--------||
|---------|----------|----------|--------||
|---------|----------|----------|--------||
|-5-------|-(5)------|-(5)------|-(5)----||
|-5-------|-(5)------|-(5)------|-(5)----||
|-3-------|-(3)------|-(3)------|-(3)----||


 Chorus
  Gtr II
  Q    +E  Q.     Q.   Q    +E    Q.   Q.     Q    +E  Q.
|---------------|---------------|-----------|---------------|
|---------------|---------------|-----------|---------------|
|---------------|-6----8b9--(8)-|-8---------|-6b7--(6)------|
|-7b8r=(7)-7----|---------------|------9----|----------8----|
|---------------|---------------|-----------|---------------|
|---------------|---------------|-----------|---------------|
|
| Gtr III
| Q    +E  Q.     Q.   Q    +E    Q.   Q.     Q    +E  Q.
|---------------|---------------|-----------|---------------|
|---------------|---------------|-----------|---------------|
|---------------|---------------|-----------|---------------|
|---------------|---------------|-----------|---------------|
|---------------|-4----6b7--(6)-|-6---------|-4b5--(4)------|
|-5b6r=(5)-5----|---------------|------7----|----------6----|


                                        ~~~~~~~~~~~
  Q    +E  Q.     Q.   Q    +E    Q.   +Q.     +H.
|---------------|---------------|------------|--------|
|---------------|---------------|------------|--------|
|---------------|-6----8b9--(8)-|-8----(8)---|-(8)----|
|-7b8r=(7)-7----|---------------|------------|--------|
|---------------|---------------|------------|--------|
|---------------|---------------|------------|--------|
|
|                                       ~~~~~~~~~~~
| Q    +E  Q.     Q.   Q    +E    Q.   +Q.     +H.
|---------------|---------------|------------|--------|
|---------------|---------------|------------|--------|
|---------------|---------------|------------|--------|
|---------------|---------------|------------|--------|
|---------------|-4----6b7--(6)-|-6----(6)---|-(6)----|
|-5b6r=(5)-5----|---------------|------------|--------|


  Q    +E  Q.     Q.   Q    +E    Q.   Q.     Q    +E  Q.
|---------------|---------------|-----------|---------------|
|---------------|---------------|-----------|---------------|
|---------------|-6----8b9--(8)-|-8---------|-6b7--(6)------|
|-7b8r=(7)-7----|---------------|------9----|----------8----|
|---------------|---------------|-----------|---------------|
|---------------|---------------|-----------|---------------|
|
| Q    +E  Q.     Q.   Q    +E    Q.   Q.     Q    +E  Q.
|---------------|---------------|-----------|---------------|
|---------------|---------------|-----------|---------------|
|---------------|---------------|-----------|---------------|
|---------------|---------------|-----------|---------------|
|---------------|-4----6b7--(6)-|-6---------|-4b5--(4)------|
|-5b6r=(5)-5----|---------------|------7----|----------6----|


                                      ~~~~~~~~~~~~
  Q    +E  Q.     Q.   Q.      Q.    +Q.      +Q   Q  Q
|---------------|-----------|--------------|-------------||
|---------------|-----------|--------------|-------------||
|---------------|-6----9----|-11----(11)---|-(11)--------||
|-7b8r=(7)-7----|-----------|--------------|-------------||
|---------------|-----------|--------------|----------1--||
|---------------|-----------|--------------|-------0-----||
|
|                                     ~~~~~~~~~~~~
| Q    +E  Q.     Q.   Q.      Q.    +Q.      +Q   Q  Q
|---------------|-----------|--------------|-------------||
|---------------|-----------|--------------|-------------||
|---------------|-----------|--------------|-------------||
|---------------|-----------|--------------|-------------||
|---------------|-4----7----|--9-----(9)---|--(9)-----1--||
|-5b6r=(5)-5----|-----------|--------------|-------0-----||


 Bridge
  Gtrs II, III
  H.        H.        H.        H.        H.        +H.
|---------|---------|---------|---------|---------|--------|
|---------|---------|---------|-5-------|---------|--------|
|---------|-5-------|---------|-5-------|-2-------|-(2)----|
|-3-------|-5-------|-3-------|-5-------|-2-------|-(2)----|
|-3-------|-3-------|-3-------|-3-------|-0-------|-(0)----|
|-1-------|---------|-1-------|---------|---------|--------|


  H.        H.        H.        H.        H.        H.
|---------|---------|---------|---------|---------|-------|
|---------|---------|---------|-5-------|---------|-------|
|---------|-5-------|---------|-5-------|---------|-5-----|
|-3-------|-5-------|-3-------|-5-------|-3-------|-5-----|
|-3-------|-3-------|-3-------|-3-------|-3-------|-3-----|
|-1-------|---------|-1-------|---------|-1-------|-------|


  Gtr IV
                      \6_______________/0______
  H.        H.        H.         +Q.   Q.
|---------|---------|----------|-------------||
|---------|---------|----------|-------------||
|---------|---------|----------|-------------||
|---------|---------|----------|-------------||
|---------|---------|----------|-------------||
|---------|---------|-0--------|-(0)---0-----||
|
| Gtrs II, III
| H.        H.        H.         +H.
|---------|---------|----------|-------------||
|---------|-5-------|----------|-------------||
|---------|-5-------|----------|-------------||
|-3-------|-5-------|-2--------|-(2)---------||
|-3-------|-3-------|-2--------|-(2)---------||
|-1-------|---------|-0--------|-(0)---------||


 Guitar Solo
  Gtr IV
  ~~~~~~~~~~~~~~~~~~~~                      ~~~~~~~~~~~~~~
  H.              +Q    Q      +S   +S  E   H.        +Q   E   E E E
|---------------|-------------------------|---------|------------9---|
|-7b8===========|=(7)--[7]b8==([7])r(7)p5-|-5-------|-(5)--5\--------|
|---------------|-------------------------|---------|---------/9---9-|
|---------------|-------------------------|---------|----------------|
|---------------|-------------------------|---------|----------------|
|---------------|-------------------------|---------|----------------|
|
| Gtrs II, III
| E    E +H       +H.                       H.        +H.
|---------------|-------------------------|---------|----------------|
|---------------|-------------------------|---------|----------------|
|---------------|-------------------------|---------|----------------|
|-2----2-(2)----|-(2)---------------------|-1-------|-(1)------------|
|-0----0-(0)----|-(0)---------------------|---------|----------------|
|---------------|-------------------------|---------|----------------|


                                                              \1.75
  E Q      E Q    E  Q  E +E     +E    +S     +S  +E  H       H        Q
|-9-------------|--------------------|---------------------|---------------|
|----------5s8--|-8\----4-(4)b5==(4)r|=(4)b5==(4)r(4)------|---------------|
|---9\----------|----4---------------|----------------0----|--0------------|
|---------------|--------------------|---------------------|---------------|
|---------------|--------------------|---------------------|---------------|
|---------------|--------------------|---------------------|---------------|
|
| E E  +H         H.                   +H.                   +H.
|---------------|--------------------|---------------------|---------------|
|---------------|--------------------|---------------------|---------------|
|---------------|--------------------|---------------------|---------------|
|-2-2--(2)------|-1------------------|-(1)-----------------|-(1)-----------|
|-0-0--(0)------|--------------------|---------------------|---------------|
|---------------|--------------------|---------------------|---------------|


  ~~~~~~~~~~~~~~~~~~~~                         ~~~~~~~~~~~~~~~
  H.              +Q    Q       +S   +S  E     H.         +E   Q    E E E
|---------------|--------------------------|-----------|--------------9----|
|-7b8===========|=(7)--[7]b8===([7])r(7)p5-|-/10-------|-(10)-10\----------|
|---------------|--------------------------|-----------|-----------/9---9--|
|---------------|--------------------------|-----------|-------------------|
|---------------|--------------------------|-----------|-------------------|
|---------------|--------------------------|-----------|-------------------|
|
| E    E +H        H.                         +H.         +H.
|---------------|--------------------------|-----------|-------------------|
|---------------|--------------------------|-----------|-------------------|
|---------------|--------------------------|-----------|-------------------|
|-2----2-(2)----|--1-----------------------|--(1)------|--(1)--------------|
|-0----0-(0)----|--------------------------|-----------|-------------------|
|---------------|--------------------------|-----------|-------------------|


  E Q        E  E  E    E   Q     E  E  E    E   E  +H        Q   Q   Q
|-9------------12----|-12-----------15----|-15-------------|--------------|
|---8\---------------|-----14\------------|-----16-(16)----|-16--16--16---|
|----------/12----12-|----------/14----14-|----------------|--------------|
|--------------------|--------------------|----------------|--------------|
|--------------------|--------------------|----------------|--------------|
|--------------------|--------------------|----------------|--------------|
|
| E E  +H               H.                  +H.               Q   Q   E E
|--------------------|--------------------|----------------|--------------|
|--------------------|--------------------|----------------|--------------|
|--------------------|--------------------|----------------|--------------|
|-2-2--(2)-----------|--1-----------------|-(1)------------|--2-----------|
|-0-0--(0)-----------|--------------------|----------------|--0-------1p0-|
|--------------------|--------------------|----------------|------0-------|


 3rd Verse
    ~~~~~~~~
   +Q         +E   +E   Q     H.             H.             H.
|---------------------------|--------------|--------------|------------|
|-(16)b17====(16)r(16)\-----|--------------|--------------|------------|
|---------------------------|--------------|--------------|------------|
|---------------------------|--------------|--------------|------------|
|---------------------------|--------------|--------------|------------|
|---------------------------|--------------|--------------|------------|
|
| Gtrs II, III
|                                                                   ~
|   E      E   E    E   E E   E  E E E E E   E  E E E E E   E  E Q  Q
|---------------------------|--------------|--------------|------------|
|---------------------------|--------------|--------------|------------|
|---2------2--------2---2-2-|-2--2---2-2-2-|-2--2---2-2-2-|-2--2-------|
|---2------2--------2---2-2-|-2--2---2-2-2-|-2--2---2-2-2-|-2--2-------|
|---0------0--------0---0-0-|-0--0---0-0-0-|-0--0---0-0-0-|-0--0----1--|
|---------------------------|--------------|--------------|------0-----|


  Gtrs II, III
                                                   ~
  E E E E E E   E E E E E E   E E E E E E   E E Q  Q
|-------------|-------------|-------------|-----------|
|-------------|-------------|-------------|-----------|
|-2-2---2-2-2-|-2-2---2-2-2-|-2-2---2-2-2-|-2-2-------|
|-2-2---2-2-2-|-2-2---2-2-2-|-2-2---2-2-2-|-2-2-------|
|-0-0---0-0-0-|-0-0---0-0-0-|-0-0---0-0-0-|-0-0----1--|
|-------------|-------------|-------------|-----0-----|


                                                   ~
  E E E E E E   E E E E E E   E E E E E E   E E Q  Q
|-------------|-------------|-------------|-----------|
|-------------|-------------|-------------|-----------|
|-2-2---2-2-2-|-2-2---2-2-2-|-2-2---2-2-2-|-2-2-------|
|-2-2---2-2-2-|-2-2---2-2-2-|-2-2---2-2-2-|-2-2-------|
|-0-0---0-0-0-|-0-0---0-0-0-|-0-0---0-0-0-|-0-0----1--|
|-------------|-------------|-------------|-----0-----|


                                                   ~
  E E E E E E   E E E E E E   E E E E E E   E E Q  Q
|-------------|-------------|-------------|-----------|
|-------------|-------------|-------------|-----------|
|-2-2---2-2-2-|-2-2---2-2-2-|-2-2---2-2-2-|-2-2-------|
|-2-2---2-2-2-|-2-2---2-2-2-|-2-2---2-2-2-|-2-2-------|
|-0-0---0-0-0-|-0-0---0-0-0-|-0-0---0-0-0-|-0-0----1--|
|-------------|-------------|-------------|-----0-----|


  H.        +H.        +H.        +H.
|---------|----------|----------|--------||
|---------|----------|----------|--------||
|---------|----------|----------|--------||
|-5-------|-(5)------|-(5)------|-(5)----||
|-5-------|-(5)------|-(5)------|-(5)----||
|-3-------|-(3)------|-(3)------|-(3)----||


   Outro Chorus
    Gtr II
    Q    +E  Q.     Q.   Q    +E    Q.   Q.     Q    +E  Q.
||----------------|---------------|-----------|--------------|
||o---------------|---------------|-----------|--------------|
||----------------|-6----8b9--(8)-|-8---------|-6b7--(6)-----|
||--7b8r=(7)-7----|---------------|------9----|----------8---|
||o---------------|---------------|-----------|--------------|
||----------------|---------------|-----------|--------------|
|
|   Gtr III
|   Q    +E  Q.     Q.   Q    +E    Q.   Q.     Q    +E  Q.
||----------------|---------------|-----------|--------------|
||o---------------|---------------|-----------|--------------|
||----------------|---------------|-----------|--------------|
||----------------|---------------|-----------|--------------|
||o---------------|-4----6b7--(6)-|-6---------|-4b5--(4)-----|
||--5b6r=(5)-5----|---------------|------7----|----------6---|


                                              1.,2.,3.,4.
                                        ~~~~~~~~~~~
  Q    +E  Q.     Q.   Q    +E    Q.   +Q.     +H.     5x
|---------------|---------------|------------|---------||
|---------------|---------------|------------|--------o||
|---------------|-6----8b9--(8)-|-8----(8)---|-(8)-----||
|-7b8r=(7)-7----|---------------|------------|---------||
|---------------|---------------|------------|--------o||
|---------------|---------------|------------|---------||
|
|                                       ~~~~~~~~~~~
| Q    +E  Q.     Q.   Q    +E    Q.   +Q.     +H.     5x
|---------------|---------------|------------|---------||
|---------------|---------------|------------|--------o||
|---------------|---------------|------------|---------||
|---------------|---------------|------------|---------||
|---------------|-4----6b7--(6)-|-6----(6)---|-(6)----o||
|-5b6r=(5)-5----|---------------|------------|---------||


  5.
  Gtr II
   ~~~
  +Q   H         H.          H.        H.
|--------------|-----------|---------|-------*|
|--------------|-----------|---------|-------*|
|-(8)----------|-----------|---------|-------*|
|--------------|-----------|---------|-------*|
|--------------|-----------|---------|-------*|
|--------------|-----------|---------|-------*|
|
| Gtr III
|  ~~~
| +Q   H         H.          H.        H.
|--------------|-----------|---------|-------*|
|--------------|-----------|---------|-------*|
|--------------|-----------|---------|-------*|
|--------------|-----------|---------|-------*|
|-(6)----------|-----------|---------|-------*|
|--------------|-----------|---------|-------*|
|
| Gtr I
|  Q   E E E E   Q.   Q.     H.        H.
|------0-------|-----------|---------|-------*|
|--------3-----|-----------|---------|-------*|
|----------3-2-|-----------|---------|-------*|
|--------------|-----------|---------|-------*|
|--------------|-0---------|---------|-------*|
|--------------|-----------|---------|-------*|




--------------------------------------------------------------------------------


Duration Legend
---------------
W - whole; H - half; Q - quarter; E - 8th; S - 16th; T - 32nd; X - 64th; a - acciaccatura
+ - note tied to previous; . - note dotted; .. - note double dotted
Uncapitalized letters represent notes that are staccato (1/2 duration)
Irregular groupings are notated above the duration line
Duration letters will always appear directly above the note/fret number it represents the
duration for.  Duration letters with no fret number below them represent rests.  Multi-
bar rests are notated in the form Wxn, where n is the number of bars to rest for.  Low
melody durations appear below the staff

Tablature Legend
----------------
 h   - hammer-on
 p   - pull-off
 b   - bend
 pb  - pre-bend
 r   - bend release (if no number after the r, then release immediately)
 /\  - slide into or out of (from/to "nowhere")
 s   - legato slide
 S   - shift slide
 n> - natural harmonic
[n]  - artificial harmonic
n(n) - tapped harmonic
 ~   - vibrato
 tr  - trill
 T   - tap
 TP  - trem. picking
 PM  - palm muting
\n/  - tremolo bar dip; n = amount to dip
 \n  - tremolo bar down
 n/  - tremolo bar up
/n\  - tremolo bar inverted dip
 =   - hold bend; also acts as connecting device for hammers/pulls
  > - volume swell (louder/softer)
 x   - on rhythm slash represents muted slash
 o   - on rhythm slash represents single note slash

Misc Legend
-----------
 |  - bar
||  - double bar
||o - repeat start
o|| - repeat end
*|  - double bar (ending)
 :  - bar (freetime)
 $  - Segno
 &  - Coda
Tempo markers -  E  ./Q/Q./H  .> = BPM(8/16=s8/s16), where s8 = swing 8ths, s16 = swing 16ths



--------------------------------------------------------------------------------

     
Добавлено: 22.06.2013
Другие материалы по этой песне:

Страница создана 18.03.2012
http://primanota.ru/queensryche/i-am-i-chords.htm
Привет, Гость.
Предлагаем пройти революционный курс по гитаре.
Подарок от PrimaNota.Ru, забирай!