PrimaNota.ru - самый крупный в мире бесплатный архив песенных текстов, аккордов, табулатур и нот


Procol Harum - I Keep Forgetting - аккорды и текст, бас-таба, видео

Регистрация Запомнить меня
Войти через:  Facebook Google Twitter Vk Yandex Mail.ru

Procol Harum - I Keep Forgetting - аккорды и текст, бас-таба, видео

Печатать
Просмотров: 158
I Keep Forgetting
Procol Harum
Tuning : E A D G Time Signature: 4/4
 
tempo 95| | | | | | |
|--------------------------------|--------------------------------|
|3-----------3-----------3-------|--------------------------------|
|--------------------------------|4-----------3-----------3-------|
|--------------------------------|--------------------------------|

| | | | | | | |
|--------------------------------|--------------------------------|
|3-----------3-----------3-------|--------------------------------|
|--------------------------------|4-----------3-----------3-------|
|--------------------------------|--------------------------------|

| | | | | | | |
|--------------------------------|--------------------------------|
|3-----------3-----------3-------|--------------------------------|
|--------------------------------|4-----------3-----------3-------|
|--------------------------------|--------------------------------|

| | I keep forgettin'... | | | |
|--------------------------------|--------------------------------|
|3-------------------------------|--------------------------------|
|----3---------------------------|------------------------3-------|
|--------------------------------|1-----------1-------------------|

| | | | | | | |
|--------------------------------|--------------------------------|
|--------------------------------|--------------------------------|
|------------------------3-------|3-----------3-------------------|
|1-----------1-------------------|------------------------3-------|

| | | | | | | |
|--------------------------------|--------------------------------|
|--------------------------------|--------------------------------|
|3-----------3-------------------|------------------------3-------|
|------------------------3-------|1-----------1-------------------|

| | | | | | | |
|--------------------------------|--------------------------------|
|--------------------------------|--------------------------------|
|--------------------------------|--------------------------------|
|1-----------1-----------1-------|4-----------4-----------4-------|

| | | But these stupid ol' feet... |
|--------------------------------|--------------------------------|
|--------------------------------|--------------------------------|
|--------------------------------|4-----------3---------------3---|
|4-----------4-----------4-------|--------------------------------|

| | | | | | | |
|--------------------------------|--------------------------------|
|--------------------------------|--------------------------------|
|4-----------3---------------3---|4-----------4---3-----------3---|
|--------------------------------|--------------------------------|

| | | | | | | |
|--------------------------------|--------------------------------|
|--------------------------------|--------------------------------|
|--------------------------------|4-----------3---------------3---|
|1-------------------------------|--------------------------------|

| | | | | | | |
|--------------------------------|--------------------------------|
|--------------------------------|--------------------------------|
|4-----------3---------------3---|4---4-------4---3-----------3---|
|--------------------------------|--------------------------------|

| I keep forgettin' you don't love me no more... |
|--------------------------------|--------------------------------|
|--------------------------------|--------------------------------|
|----3---------------------------|------------------------3-------|
|1-------------------------------|1-----------1-------------------|

| | | | | | | |
|--------------------------------|--------------------------------|
|--------------------------------|--------------------------------|
|------------------------3-------|3-----------3-------------------|
|1-----------1-------------------|------------------------3-------|

| | | | | | | |
|--------------------------------|--------------------------------|
|--------------------------------|--------------------------------|
|3-----------3-------------------|------------------------3-------|
|------------------------3-------|1-----------1-------------------|

| | | | | | | |
|--------------------------------|--------------------------------|
|--------------------------------|--------------------------------|
|--------------------------------|--------------------------------|
|1-----------1-----------1-------|4-----------4-----------4-------|

| | | though it's plain|as can be... |
|--------------------------------|--------------------------------|
|--------------------------------|--------------------------------|
|--------------------------------|4-----------3---------------3---|
|4-----------4-----------4-------|--------------------------------|

| | | | | | | |
|--------------------------------|--------------------------------|
|--------------------------------|--------------------------------|
|4-----------3---------------3---|4-----------4---3-----------3---|
|--------------------------------|--------------------------------|

| | | | | | | |
|--------------------------------|--------------------------------|
|--------------------------------|--------------------------------|
|--------------------------------|4-----------3---------------3---|
|1-------------------------------|--------------------------------|

| | | | | | | |
|--------------------------------|--------------------------------|
|--------------------------------|--------------------------------|
|4-----------3---------------3---|4-----------4---3-----------3---|
|--------------------------------|--------------------------------|

| | | | | | | |
|--------------------------------|--------------------------------|
|--------------------------------|3-----------3-----------3-------|
|----3---------------------------|--------------------------------|
|1-------------------------------|--------------------------------|

| | | | | | | |
|--------------------------------|--------------------------------|
|--------------------------------|3-----------3-----------3-------|
|4-----------3-----------3-------|--------------------------------|
|--------------------------------|--------------------------------|

| | | | | | | |
|--------------------------------|--------------------------------|
|--------------------------------|3-----------3-----------3-------|
|4-----------3-----------3-------|--------------------------------|
|--------------------------------|--------------------------------|

| | | | | | | |
|--------------------------------|--------------------------------|
|--------------------------------|--------------------------------|
|4-----------3-----------3-------|----3---------------------------|
|--------------------------------|1-------------------------------|

| | | | | | | |
|--------------------------------|--------------------------------|
|--------------------------------|--------------------------------|
|------------------------3-------|------------------------3-------|
|1-----------1-------------------|1-----------1-------------------|

| | | | | | | |
|--------------------------------|--------------------------------|
|--------------------------------|--------------------------------|
|3-----------3-------------------|3-----------3-------------------|
|------------------------3-------|------------------------3-------|

| | | | | | | |
|--------------------------------|--------------------------------|
|--------------------------------|--------------------------------|
|------------------------3-------|--------------------------------|
|1-----------1-------------------|1-----------1-----------1-------|

| | | | | | | |
|--------------------------------|--------------------------------|
|--------------------------------|--------------------------------|
|--------------------------------|--------------------------------|
|4-----------4-----------4-------|4-----------4-----------4-------|

| | | | | | | |
|--------------------------------|--------------------------------|

|--------------------------------|--------------------------------|
|4-----------3---------------3---|4-----------3---------------3---|
|--------------------------------|--------------------------------|

| | | | | | | |
|--------------------------------|--------------------------------|
|--------------------------------|--------------------------------|
|4-----------4---3-----------3---|--------------------------------|
|--------------------------------|1-------------------------------|

| | | | | | | |
|--------------------------------|--------------------------------|
|--------------------------------|--------------------------------|
|4-----------3---------------3---|4-----------3---------------3---|
|--------------------------------|--------------------------------|

| | | | | | | |
|--------------------------------|--------------------------------|
|--------------------------------|--------------------------------|
|4-----------4---3-----------3---|----3---------------------------|
|--------------------------------|1-------------------------------|

| | | | | | | |
|--------------------------------|--------------------------------|
|--------------------------------|--------------------------------|
|--------------------------------|4-----------3-----------3-------|
|1-----------1-----------1-------|--------------------------------|

| | | | | | | |
|--------------------------------|--------------------------------|
|--------------------------------|--------------------------------|
|--------------------------------|4-----------3-----------3-------|
|1-----------1-----------1-------|--------------------------------|

| | | | | | | |
|--------------------------------|--------------------------------|
|--------------------------------|--------------------------------|
|--------------------------------|4-----------3-----------3-------|
|1-----------1-----------1-------|--------------------------------|

| | | | | | | |
|--------------------------------|--------------------------------|
|--------------------------------|--------------------------------|
|--------------------------------|4-----------3-----------3-------|
|1-----------1-----------1-------|--------------------------------|

| | | | | | | |
|--------------------------------|--------------------------------|
|--------------------------------|--------------------------------|
|--------------------------------|4-----------3-----------3-------|
|1-----------1-----------1-------|--------------------------------|

| | | | | | | |
|--------------------------------|--------------------------------|
|--------------------------------|--------------------------------|
|--------------------------------|4-----------3-----------3-------|
|1-----------1-----------1-------|--------------------------------|

| | | | | | | |
|--------------------------------|--------------------------------|
|--------------------------------|--------------------------------|
|--------------------------------|4-----------3-----------3-------|
|1-----------1-----------1-------|--------------------------------|

| | | | | | | |
|--------------------------------|--------------------------------|
|--------------------------------|--------------------------------|
|--------------------------------|4-----------3-----------3-------|
|1-----------1-----------1-------|--------------------------------|

| | | |
|--------------------------------|
|--------------------------------|
|--------------------------------|
|1-----------1-----------1-------|
Добавлено: 10.12.2013
Другие материалы по этой песне:
  • Аккорды и текст

Страница создана 06.07.2012
http://primanota.ru/procol-harum/i-keep-forgetting-chords.htm
Привет, Гость.
Предлагаем пройти революционный курс по гитаре.
Подарок от PrimaNota.Ru, забирай!