PrimaNota.ru - самый крупный в мире бесплатный архив песенных текстов, аккордов, табулатур и нот


Procol Harum - Im Just A Singer - бас-таба, видео

Регистрация Запомнить меня
Войти через:  Facebook Google Twitter Vk Yandex Mail.ru

Procol Harum - Im Just A Singer - бас-таба, видео

Печатать
Просмотров: 80
Уроки эстрадного вокала в Санкт-Петербурге
Procol Harum - Im Just A Singer

TablEdited by Jan Bjorklund    jani_bjorklund@yahoo.se>
You are welcome to request for tabs!
Fingering and positions as suggested by TablEdit, please use common sense.


TablEdited by Jan.Bjorklund
Tuning : E A D G 	Time Signature: 4/4

  |       |       |       |        |       |       |       |
|--------4---2-------------------|--------4---2-------------------|
|--------------------4---2---4---|--------------------4---2---4---|
|2---2---------------------------|2---2---------------------------|
|--------------------------------|--------------------------------|

  |       |       |       |        |       |       |       |
|--------4---2-------------------|--------4---2-------------------|
|--------------------4---2---4---|--------------------4---2---4---|
|2---2---------------------------|2---2---------------------------|
|--------------------------------|--------------------------------|

  |       |       |       |        |       |       |       |
|--------4---2-------------------|--------4---2-------------------|
|--------------------4---2---4---|--------------------4---2---4---|
|2---2---------------------------|2---2---------------------------|
|--------------------------------|--------------------------------|

  |       |       |       |        |       |       |       |
|--------4---2-------------------|--------4---2-------------------|
|--------------------4---2---4---|--------------------4---2---4---|
|2---2---------------------------|2---2---------------------------|
|--------------------------------|--------------------------------|

  |       |       |       |        |       |       |       |
|--------4---2-------------------|--------4---2-------------------|
|--------------------4---2---4---|--------------------4---2---4---|
|2---2---------------------------|2---2---------------------------|
|--------------------------------|--------------------------------|

  |       |       |       |        |       |       |       |
|--------4---2-------------------|--------4---2-------------------|
|--------------------4---2---4---|--------------------4---2---4---|
|2---2---------------------------|2---2---------------------------|
|--------------------------------|--------------------------------|

  |       |       |       |        |       |       |       |
|--------------------------------|--------------------------------|
|--------2-------2-----------2---|--------2---0-----------2-------|
|--------------------2-----------|----------------2-----------2---|
|0-----------0-----------0-------|----0---------------0-----------|

  |       |       |       |        |       |       |       |
|--------------------------------|--------------------------------|
|--------4-------4-----------4---|----4-------4-----------4-------|
|--------------------4-----------|----------------4---------------|
|2-----------2-----------2-------|--------2-----------2-------2---|

  |       |       |       |        |       |       |       |
|--------4---2-------------------|--------4---2-------------------|
|--------------------4---2---4---|--------------------4---2---4---|
|2---2---------------------------|2---2---------------------------|
|--------------------------------|--------------------------------|

  |       |       |       |        |       |       |       |
|--------4---2-------------------|--------4---2-------------------|
|--------------------4---2---4---|--------------------4---2---4---|
|2---2---------------------------|2---2---------------------------|
|--------------------------------|--------------------------------|

  |       |       |       |        |       |       |       |
|--------4---2-------------------|--------4---2-------------------|
|--------------------4---2---4---|--------------------4---2---4---|
|2---2---------------------------|2---2---------------------------|
|--------------------------------|--------------------------------|

  |       |       |       |        |       |       |       |
|--------4---2-------------------|--------4---2-------------------|
|--------------------4---2---4---|--------------------4---2---4---|
|2---2---------------------------|2---2---------------------------|
|--------------------------------|--------------------------------|

  |       |       |       |        |       |       |       |
|--------4---2-------------------|--------4---2-------------------|
|--------------------4---2---4---|--------------------4---2---4---|
|2---2---------------------------|2---2---------------------------|
|--------------------------------|--------------------------------|

  |       |       |       |        |       |       |       |
|--------4---2-------------------|--------4---2-------------------|
|--------------------4---2---4---|--------------------4---2---4---|
|2---2---------------------------|2---2---------------------------|
|--------------------------------|--------------------------------|

  |       |       |       |        |       |       |       |
|--------------------------------|--------------------------------|
|--------2-------2-----------2---|--------2---0-----------2-------|
|--------------------2-----------|----------------2-----------2---|
|0-----------0-----------0-------|----0---------------0-----------|

  |       |       |       |        |       |       |       |
|--------------------------------|--------------------------------|
|--------4-------4-----------4---|----4-------4-----------4-------|
|--------------------4-----------|----------------4---------------|
|2-----------2-----------2-------|--------2-----------2-------2---|

  |       |       |       |        |       |       |       |
|--------4---2-------------------|--------4---2-------------------|
|--------------------4---2---4---|--------------------4---2---4---|
|2---2---------------------------|2---2---------------------------|
|--------------------------------|--------------------------------|

  |       |       |       |        |       |       |       |
|--------4---2-------------------|--------4---2-------------------|
|--------------------4---2---4---|--------------------4---2---4---|
|2---2---------------------------|2---2---------------------------|
|--------------------------------|--------------------------------|

  |       |       |       |        |       |       |       |
|--------------------------------|--------------------------------|
|--------------------------------|4-------4-------4-------4-------|
|----------------------------4---|--------------------------------|
|2-------2-------2-------2-------|--------------------2-------2---|

  |       |       |       |        |       |       |       |
|--------------------------------|----------------2---------------|
|----------------2-------2-------|------------------------2-------|
|----------------------------2---|0-----------0-------0-------0---|
|0-----------0-------0-----------|--------------------------------|

  |       |       |       |        |       |       |       |
|--------------------------------|--------------------------------|
|4-----------4-----------4-------|--------------------------------|
|----------------4-----------4---|2-----------2---2-------2-------|
|--------------------2-----------|--------------------2-------2---|

  |       |       |       |        |       |       |       |
|--------------------------------|----------------2---------------|
|----------------2-------2-------|------------------------2-------|
|----------------------------2---|0-----------0-------0-------0---|
|0-----------0-------0-----------|--------------------------------|

  |       |       |       |        |       |       |       |
|--------------------------------|--------------------------------|
|--------------------------------|--------4-------4-----------4---|
|2-------2-------2-------2-------|--------------------4-----------|
|--------------------2-------2---|2-----------------------2-------|

  |       |       |       |        |       |       |       |
|--------------------------------|--------------------------------|
|--------------------------------|4-------4-------4-----------4---|
|2-------2-------2-------2-------|--------------------4-----------|
|--------------------2-------2---|------------------------2-------|

  |       |       |       |        |       |       |       |
|--------------------------------|--------4---2-------------------|
|--------------------------------|--------------------4---2---4---|
|2---2---2---2-------------------|2---2---------------------------|
|--------------------------------|--------------------------------|

  |       |       |       |        |       |       |       |
|--------4---2-------------------|--------4---2-------------------|
|--------------------4---2---4---|--------------------4---2---4---|
|2---2---------------------------|2---2---------------------------|
|--------------------------------|--------------------------------|

  |       |       |       |        |       |       |       |
|--------4---2-------------------|--------4---2-------------------|
|--------------------4---2---4---|--------------------4---2---4---|
|2---2---------------------------|2---2---------------------------|
|--------------------------------|--------------------------------|

  |       |       |       |        |       |       |       |
|--------4---2-------------------|--------4---2-------------------|
|--------------------4---2---4---|--------------------4---2---4---|
|2---2---------------------------|2---2---------------------------|
|--------------------------------|--------------------------------|

  |       |       |       |        |       |       |       |
|--------4---2-------------------|--------4---2-------------------|
|--------------------4---2---4---|--------------------4---2---4---|
|2---2---------------------------|2---2---------------------------|
|--------------------------------|--------------------------------|

  |       |       |       |        |       |       |       |
|--------4---2-------------------|--------4---2-------------------|
|--------------------4---2---4---|--------------------4---2---4---|
|2---2---------------------------|2---2---------------------------|
|--------------------------------|--------------------------------|

  |       |       |       |        |       |       |       |
|--------4---2-------------------|--------------------------------|
|--------------------4---2---4---|--------2-------2-----------2---|
|2---2---------------------------|--------------------2-----------|
|--------------------------------|0-----------0-----------0-------|

  |       |       |       |        |       |       |       |
|--------------------------------|--------------------------------|
|--------2---0-----------2-------|--------4-------4-----------4---|
|----------------2-----------2---|--------------------4-----------|
|----0---------------0-----------|2-----------2-----------2-------|

  |       |       |       |        |       |       |       |
|--------------------------------|--------4---2-------------------|
|----4-------4-----------4-------|--------------------4---2---4---|
|----------------4---------------|2---2---------------------------|
|--------2-----------2-------2---|--------------------------------|

  |       |       |       |        |       |       |       |
|--------4---2-------------------|--------4---2-------------------|
|--------------------4---2---4---|--------------------4---2---4---|
|2---2---------------------------|2---2---------------------------|
|--------------------------------|--------------------------------|

  |       |       |       |        |       |       |       |
|--------4---2-------------------|--------4---2-------------------|
|--------------------4---2---4---|--------------------4---2---4---|
|2---2---------------------------|2---2---------------------------|
|--------------------------------|--------------------------------|

  |       |       |       |        |       |       |       |
|--------4---2-------------------|--------4---2-------------------|
|--------------------4---2---4---|--------------------4---2---4---|
|2---2---------------------------|2---2---------------------------|
|--------------------------------|--------------------------------|

  |       |       |       |        |       |       |       |
|--------4---2-------------------|--------4---2-------------------|
|--------------------4---2---4---|--------------------4---2---4---|
|2---2---------------------------|2---2---------------------------|
|--------------------------------|--------------------------------|

  |       |       |       |        |       |       |       |
|--------4---2-------------------|--------4---2-------------------|
|--------------------4---2---4---|--------------------4---2---4---|
|2---2---------------------------|2---2---------------------------|
|--------------------------------|--------------------------------|

  |       |       |       |        |       |       |       |
|--------4---2-------------------|--------------------------------|
|--------------------4---2---4---|--------2-------2-----------2---|
|2---2---------------------------|--------------------2-----------|
|--------------------------------|0-----------0-----------0-------|

  |       |       |       |        |       |       |       |
|--------------------------------|--------------------------------|
|--------2---0-----------2-------|--------4-------4-----------4---|
|----------------2-----------2---|--------------------4-----------|
|----0---------------0-----------|2-----------2-----------2-------|

  |       |       |       |        |       |       |       |
|--------------------------------|--------4---2-------------------|
|----4-------4-----------4-------|--------------------4---2---4---|
|----------------4---------------|2---2---------------------------|
|--------2-----------2-------2---|--------------------------------|

  |       |       |       |        |       |       |       |
|--------4---2-------------------|--------4---2-------------------|
|--------------------4---2---4---|--------------------4---2---4---|
|2---2---------------------------|2---2---------------------------|
|--------------------------------|--------------------------------|

  |       |       |       |        |       |       |       |
|--------4---2-------------------|--------------------------------|
|--------------------4---2---4---|--------------------------------|
|2---2---------------------------|----------------------------4---|
|--------------------------------|2-------2-------2-------2-------|

  |       |       |       |        |       |       |       |
|--------------------------------|--------------------------------|
|4-------4-------4-------4-------|----------------2-------2-------|
|--------------------------------|----------------------------2---|
|--------------------2-------2---|0-----------0-------0-----------|

  |       |       |       |        |       |       |       |
|----------------2---------------|--------------------------------|
|------------------------2-------|4-----------4-----------4-------|
|0-----------0-------0-------0---|----------------4-----------4---|
|--------------------------------|--------------------2-----------|

  |       |       |       |        |       |       |       |
|--------------------------------|--------------------------------|
|--------------------------------|----------------2-------2-------|
|2-----------2---2-------2-------|----------------------------2---|
|--------------------2-------2---|0-----------0-------0-----------|

  |       |       |       |        |       |       |       |
|----------------2---------------|--------------------------------|
|------------------------2-------|--------------------------------|
|0-----------0-------0-------0---|2-------2-------2-------2-------|
|--------------------------------|--------------------2-------2---|

  |       |       |       |        |       |       |       |
|--------------------------------|--------------------------------|
|--------4-------4-----------4---|--------------------------------|
|--------------------4-----------|2-------2-------2-------2-------|
|2-----------------------2-------|--------------------2-------2---|

  |       |       |       |        |       |       |       |
|--------------------------------|--------------------------------|
|4-------4-------4-----------4---|--------------------------------|
|--------------------4-----------|2---2---2---2-------------------|
|------------------------2-------|--------------------------------|

  |       |       |       |        |       |       |       |
|--------4---2-------------------|--------4---2-------------------|
|--------------------4---2---4---|--------------------4---2---4---|
|2---2---------------------------|2---2---------------------------|
|--------------------------------|--------------------------------|

  |       |       |       |        |       |       |       |
|--------4---2-------------------|--------4---2-------------------|
|--------------------4---2---4---|--------------------4---2---4---|
|2---2---------------------------|2---2---------------------------|
|--------------------------------|--------------------------------|

  |       |       |       |        |       |       |       |
|--------4---2-------------------|--------4---2-------------------|
|--------------------4---2---4---|--------------------4---2---4---|
|2---2---------------------------|2---2---------------------------|
|--------------------------------|--------------------------------|

  |       |       |       |        |       |       |       |
|--------4---2-------------------|--------4---2-------------------|
|--------------------4---2---4---|--------------------4---2---4---|
|2---2---------------------------|2---2---------------------------|
|--------------------------------|--------------------------------|

  |       |       |       |        |       |       |       |
|--------4---2-------------------|--------4---2-------------------|
|--------------------4---2---4---|--------------------4---2---4---|
|2---2---------------------------|2---2---------------------------|
|--------------------------------|--------------------------------|

  |       |       |       |        |       |       |       |
|--------4---2-------------------|--------4---2-------------------|
|--------------------4---2---4---|--------------------4---2---4---|
|2---2---------------------------|2---2---------------------------|
|--------------------------------|--------------------------------|

  |       |       |       |        |       |       |       |
|--------4---2-------------------|--------4---2-------------------|
|--------------------4---2---4---|--------------------4---2---4---|
|2---2---------------------------|2---2---------------------------|
|--------------------------------|--------------------------------|

  |       |       |       |        |       |       |       |
|--------4---2-------------------|--------4---2-------------------|
|--------------------4---2---4---|--------------------4---2---4---|
|2---2---------------------------|2---2---------------------------|
|--------------------------------|--------------------------------|

  |       |       |       |        |       |       |       |
|--------4---2-------------------|--------4---2-------------------|
|--------------------4---2---4---|--------------------4---2---4---|
|2---2---------------------------|2---2---------------------------|
|--------------------------------|--------------------------------|

  |       |       |       |        |       |       |       |
|--------4---2-------------------|--------4---2-------------------|
|--------------------4---2---4---|--------------------4---2---4---|
|2---2---------------------------|2---2---------------------------|
|--------------------------------|--------------------------------|

  |       |       |       |        |       |       |       |
|--------4---2-------------------|--------4---2-------------------|
|--------------------4---2---4---|--------------------4---2---4---|
|2---2---------------------------|2---2---------------------------|
|--------------------------------|--------------------------------|

  |       |       |       |        |       |       |       |
|--------4---2-------------------|--------4---2-------------------|
|--------------------4---2---4---|--------------------4---2---4---|
|2---2---------------------------|2---2---------------------------|
|--------------------------------|--------------------------------|

  |       |       |       |        |       |       |       |
|--------4---2-------------------|--------4---2-------------------|
|--------------------4---2---4---|--------------------4---2---4---|
|2---2---------------------------|2---2---------------------------|
|--------------------------------|--------------------------------|

  |       |       |       |        |       |       |       |
|--------4---2-------------------|--------4---2-------------------|
|--------------------4---2---4---|--------------------4---2---4---|
|2---2---------------------------|2---2---------------------------|
|--------------------------------|--------------------------------|

  |       |       |       |        |       |       |       |
|--------4---2-------------------|--------4---2-------------------|
|--------------------4---2---4---|--------------------4---2---4---|
|2---2---------------------------|2---2---------------------------|
|--------------------------------|--------------------------------|

  |       |       |       |        |       |       |       |
|--------4---2-------------------|--------4---2-------------------|
|--------------------4---2---4---|--------------------4---2---4---|
|2---2---------------------------|2---2---------------------------|
|--------------------------------|--------------------------------|

  |       |       |       |        |       |       |       |
|--------4---2-------------------|--------4---2-------------------|
|--------------------4---2---4---|--------------------4---2---4---|
|2---2---------------------------|2---2---------------------------|
|--------------------------------|--------------------------------|

  |       |       |       |        |       |       |       |
|--------4---2-------------------|--------4---2-------------------|
|--------------------4---2---4---|--------------------4---2---4---|
|2---2---------------------------|2---2---------------------------|
|--------------------------------|--------------------------------|

  |       |       |       |        |       |       |       |
|--------4---2-------------------|--------4---2-------------------|
|--------------------4---2---4---|--------------------4---2---4---|
|2---2---------------------------|2---2---------------------------|
|--------------------------------|--------------------------------|

  |       |       |       |        |       |       |       |
|--------4---2-------------------|--------4---2-------------------|
|--------------------4---2---4---|--------------------4---2---4---|
|2---2---------------------------|2---2---------------------------|
|--------------------------------|--------------------------------|

  |       |       |       |        |       |       |       |
|--------4---2-------------------|--------4---2-------------------|
|--------------------4---2---4---|--------------------4---2---4---|
|2---2---------------------------|2---2---------------------------|
|--------------------------------|--------------------------------|

  |       |       |       |        |       |       |       |
|--------4---2-------------------|--------4---2-------------------|
|--------------------4---2---4---|--------------------4---2---4---|
|2---2---------------------------|2---2---------------------------|
|--------------------------------|--------------------------------|

  |       |       |       |        |       |       |       |
|----------------------------4---|--------------------------------|
|--------------------------------|--------------------------------|
|----------------2---------2-----|----2---------2---2-------------|
|--------------------------------|--------------------------------|

  |       |       |       |        |       |       |       |
|--------------------------4-----|--------------------------------|
|--------------------------------|--------------------------------|
|----------------2---------------|--------------------------------|
|--------------------------------|--------------------------------|

  |       |       |       |
|--------------------------------|
|--------------------------------|
|----------------2---------------|
|--------------------------------|


Created with TablEdit http://www.tabledit.com/

     
Добавлено: 18.11.2013
Другие материалы по этой песне:
  • Аккорды и текст

Страница создана 18.11.2013
http://primanota.ru/procol-harum/im-just-a-singer-chords.htm
Привет, Гость.
Предлагаем пройти революционный курс по гитаре.
Подарок от PrimaNota.Ru, забирай!