PrimaNota.ru - самый крупный в мире бесплатный архив песенных текстов, аккордов, табулатур и нот


Prince - Jack u Off - текст песни, бас-таба, видео

Регистрация Запомнить меня
Войти через:  Facebook Google Twitter Vk Yandex Mail.ru

Prince - Jack u Off - текст песни, бас-таба, видео

Печатать
Просмотров: 58
Авторы музыки: Prince

                                    Jack U Off
                                      Prince

Bass                                                              Prince 


As played by Prince

Intro

|-----------------|-----------------|-----------------|-----------------|
|-------------4---|-------------4---|-------------4---|-------------4---|
|-----4---7-----7-|-----4---7-----7-|-----4---7-----7-|-----4---7-----7-|
|-5---------------|-5---------------|-5---------------|-5---------------|
  Q   Q   Q   E E   Q   Q   Q   E E   Q   Q   Q   E E   Q   Q   Q   E E 

|-----------------|---------4-4-6---|-----------------|-----------------|
|-----------------|-----6-----------|-------------4---|-------------4---|
|---------2---4-2-|-----------------|-----4---7-----7-|-----4---7-----7-|
|-0---4-----------|-0---------------|-5---------------|-5---------------|
  Q   Q   Q   E E   Q   Q   E E Q     Q   Q   Q   E E   Q   Q   Q   E E 

Verse 1

|-----------------|-----------------|-----------------|-----------------|
|-7---------------|-----------------|-7---------------|-----------------|
|-----------------|-----------------|-----------------|-----------------|
|-----------------|-----------------|-----------------|-----------------|
  Q   Q   H         W                 Q   Q   H         W               

|-----------------|-----------------|-----------------|-----------------|
|-----------------|-----------------|-------------4---|-------------4---|
|---------2---4-2-|-----------------|-----4---7-----7-|-----4---7-----7-|
|-0---4-----------|-0---------------|-5---------------|-5---------------|
  Q   Q   Q   E E   Q   Q   H         Q   Q   Q   E E   Q   Q   Q   E E 

                                                                  P
|-----------------|-----------------|-----------------|-----------6-----|
|-7---------------|-----------------|-7---------------|-----------------|
|-----------------|-----------------|-----------------|-----------------|
|-----------------|-----------------|-----------------|-----------------|
  Q   Q   H         W                 Q   Q   H         H       E E Q               

|-----------------|-----------------|-----------------|-----------------|
|-----------------|-----------------|-------------4---|-------------4---|
|---------2---4-2-|-----------------|-----4---7-----7-|-----4---7-----7-|
|-0---4-----------|-0---------------|-5---------------|-5---------------|
  Q   Q   Q   E E   Q   Q   H         Q   Q   Q   E E   Q   Q   Q   E E 

|-----------------|-----------------|-----------------|-----------------|
|-----------------|-----------------|-----------------|-----------------|
|-----------------|-----------------|-----------------|-----------------|
|-5---------------|-----------------|-5---------------|-----------------|
  Q   Q   H         W                 Q   Q   H         W               

|-----------------|-----------------|-----------------|-----------------|
|-----------------|-----------------|-------------4---|-------------4---|
|---------2---4-2-|-----------------|-----4---7-----7-|-----4---7-----7-|
|-0---4-----------|-0---------------|-5---------------|-5---------------|
  Q   Q   Q   E E   Q   Q   H         Q   Q   Q   E E   Q   Q   Q   E E 

                               P
|-----------------|------------6----|-----------------|-----------------|
|-----------------|-----------------|-----------------|-----------------|
|-----------------|-----------------|-----------------|-----------------|
|-5---------------|-----------------|-5---------------|---------5\------|
  Q   Q   H         H        E E Q    Q   Q   H         H       H

|-----------------|-----------------|-----------------|-----------------|
|-----------------|-----------------|-------------4---|-------------4---|
|---------2---4-2-|-----------------|-----4---7-----7-|-----4---7-----7-|
|-0---4-----------|-0---------------|-5---------------|-5---------------|
  Q   Q   Q   E E   Q   Q   H         Q   Q   Q   E E   Q   Q   Q   E E 

Chorus 1

|-----------------|-----------------|-----------------|-----------------|
|-----------------|-----------------|-------------4---|-------------4---|
|---------2---4-2-|---------2---4---|-----4---7-----7-|-----4---7-------|
|-0---4-----------|-0---4-----------|-5---------------|-5---------------|
  Q   Q   Q   E E   Q   Q   Q   Q     Q   Q   Q   E E   Q   Q   Q   Q

|-----------------|-----------------|
|-----------------|-----------------|
|---------2---4-2-|---------2---4---|
|-0---4-----------|-0---4-----------|
  Q   Q   Q   E E   Q   Q   Q   Q

Interlude 1

|-----------------|-----------------|-----------------|-----------------|
|-------------4---|-------------4---|-------------4---|-------------4---|
|-----4---7-----7-|-----4---7-----7-|-----4---7-----7-|-----4---7-----7-|
|-5---------------|-5---------------|-5---------------|-5---------------|
  Q   Q   Q   E E   Q   Q   Q   E E   Q   Q   Q   E E   Q   Q   Q   E E 

|-----------------|-----------------|-----------------|-----------------|
|-----------------|-----------------|-------------4---|-------------4---|
|---------2---4-2-|---------2---4---|-----4---7-----7-|-----4---7-----7-|
|-0---4-----------|-0---4-----------|-5---------------|-5---------------|
  Q   Q   Q   E E   Q   Q   Q   Q     Q   Q   Q   E E   Q   Q   Q   E E

Verse 2

|-----------------|-----------------|-----------------|-----------------|
|-----------------|-----------------|-----------------|-----------------|
|-----------------|-----------------|-----------------|-----------------|
|-5---------------|-----------------|-5---------------|-----------------|
  Q   Q   H         W                 Q   Q   H         W               

|-----------------|-----------------|-----------------|-----------------|
|-----------------|-----------------|-------------4---|-------------4---|
|---------2---4-2-|-----------------|-----4---7-----7-|-----4---7-----7-|
|-0---4-----------|-0---------------|-5---------------|-5---------------|
  Q   Q   Q   E E   Q   Q   H         Q   Q   Q   E E   Q   Q   Q   E E 

|-----------------|-----------------|-----------------|-----------------|
|-----------------|-----------------|-----------------|-----------------|
|-----------------|-----------------|-----------------|-----------------|
|-5---------------|-----------------|-5---------------|---------5\------|
  Q   Q   H         W                 Q   Q   H         H       H       

|-----------------|-----------------|-----------------|-----------------|
|-----------------|-----------------|-------------4---|-------------4---|
|---------2---4-2-|-----------------|-----4---7-----7-|-----4---7-----7-|
|-0---4-----------|-0---------------|-5---------------|-5---------------|
  Q   Q   Q   E E   Q   Q   H         Q   Q   Q   E E   Q   Q   Q   E E 

                               P
|-----------------|------------6----|-----------------|-----------------|
|-----------------|-----------------|-----------------|-----------------|
|-----------------|-----------------|-----------------|-----------------|
|-5---------------|-----------------|-5---------------|---------5\------|
  Q   Q   H         H        E E Q    Q   Q   H         H       H               

|-----------------|-----------------|-----------------|-----------------|
|-----------------|-----------------|-------------4---|-------------4---|
|---------2---4-2-|-----------------|-----4---7-----7-|-----4---7-----7-|
|-0---4-----------|-0---------------|-5---------------|-5---------------|
  Q   Q   Q   E E   Q   Q   H         Q   Q   Q   E E   Q   Q   Q   E E 

Chorus 2

|-----------------|-----------------|-----------------|-----------------|
|-----------------|-----------------|-------------4---|-------------4---|
|---------2---4-2-|---------2---4---|-----4---7-----7-|-----4---7-------|
|-0---4-----------|-0---4-----------|-5---------------|-5---------------|
  Q   Q   Q   E E   Q   Q   Q   Q     Q   Q   Q   E E   Q   Q   Q   Q

|-----------------|-----------------|
|-----------------|-----------------|
|---------2---4-2-|---------2---4---|
|-0---4-----------|-0---4-----------|
  Q   Q   Q   E E   Q   Q   Q   Q

Interlude 2

|-----------------|-----------------|-----------------|-----------------|
|-------------4---|-------------4---|-------------4---|-------------4---|
|-----4---7-----7-|-----4---7-----7-|-----4---7-----7-|-----4---7-----7-|
|-5---------------|-5---------------|-5---------------|-5---------------|
  Q   Q   Q   E E   Q   Q   Q   E E   Q   Q   Q   E E   Q   Q   Q   E E 

|-----------------|-----------------|-----------------|-----------------|
|-----------------|-----------------|-------------4---|-4-------5---4---|
|---------2---4-2-|---------2---4---|-----4---7-----7-|-----7-----------|
|-0---4-----------|-0---2-4---------|-5---------------|-----------------|
  Q   Q   Q   E E   Q   E E Q   Q     Q   Q   Q   E E   Q   Q   Q   Q

Solo

|-----------------|-----------------|-----------------|-----------------|
|-----------------|-----------------|-----------------|-----------------|
|-----------------|-----------------|-----------------|-----------------|
|-5---------------|-----------------|-5---------------|---------5\------|
  Q   Q   H         W                 Q   Q   H         H       H      

|-----------------|-----------------|-----------------|-----------------|
|-----------------|-----------------|-------------4---|-------------4---|
|---------2---4-2-|---------2---4-2-|-----4---7-----7-|-----4---7-----7-|
|-0---4-----------|-0---4-----------|-5---------------|-5---------------|
  Q   Q   Q   E E   Q   Q   Q   E E   Q   Q   Q   E E   Q   Q   Q   E E

                               P
|-----------------|------------6----|-----------------|-----------------|
|-----------------|-----------------|-----------------|-----------------|
|-----------------|-----------------|-----------------|-----------------|
|-5---------------|-----------------|-5---------------|---------5\------|
  Q   Q   H          H       E E Q    Q   Q   H         H       H      

|-----------------|-----------------|-----------------|-----------------|
|-----------------|-----------------|-------------4---|-------------4---|
|---------2---4-2-|---------2---4-2-|-----4---7-----7-|-----4---7-----7-|
|-0---4-----------|-0---4-----------|-5---------------|-5---------------|
  Q   Q   Q   E E   Q   Q   Q   E E   Q   Q   Q   E E   Q   Q   Q   E E

Verse 3

|-----------------|-----------------|-----------------|-----------------|
|-----------------|-----------------|-----------------|-----------------|
|-----------------|-----------------|-----------------|-----------------|
|-5---------------|-----------------|-----------------|-----------------|
  Q   Q   H         W                 W                 W                


|-----------------|-----------------|---------7-----8-|(8)--9\----------|
|-----------------|-----------------|-----------------|-----------------|
|-----------------|-----------------|-----------------|-----------------|
|-----------------|-----------------|-----------------|-------------5---|
  W                 W                 H       Q   E E   E E Q   Q   Q

Outro

||------------------|-----------------|-----------------|-----------------|
||o-------------4---|-------------4---|-------------4---|-------------4---|
||o-----4---7-----7-|-----4---7-----7-|-----4---7-----7-|-----4---7-----7-|
||-(5)--------------|-5---------------|-5---------------|-5---------------|
    Q   Q   Q   E E   Q   Q   Q   E E   Q   Q   Q   E E   Q   Q   Q   E E 

|-----------------|-----------------|-----------------|------------------||
|-----------------|-----------------|-----------------|-----------------o||
|---------2---4-2-|---------2---4-2-|-----4---5---6---|-7---9-2---------o||
|-0---4-----------|-0---4-----------|-5---------------|-------------5----||
  Q   Q   Q   E E   Q   Q   Q   E E   Q   Q   Q   Q     Q   E Q   E Q

|-----------------|-----------------|-----------------|-----------------|
|-----------------|-----------------|-----------------|-----------------|
|-----4---5---6---|-7---9-7---------|-----4---5---6---|-7---9-7---------|
|(5)--------------|-------------5---|(5)--------------|-----------------|
  Q   Q   Q   Q     Q   E Q   E Q     Q   Q   Q   Q     Q   E Q   E Q

                                                   x9
|-----------------|-----------------||---------------||-----------------||
|-----------------|-----------------||o-------------o||-----------------||
|-----------------|-----------------||o-------------o||-----------------||
|-5---5---5---5---|-5---------------||--5------------||-5\--------------||
  E   E   E   E     E E Q   H           W               Q   Q   H



Key to rhythm notations:

W - Whole Note/Semi-Brieve
H - Half Note/Minim
Q - Quarter Note/Crotchet       Q. - Dotted Quarter Note
E - Eight Note/Quaver           E. - Dotted Eight Note
S - Sixteenth Note/Semi-Quaver  S. - Dotted Sixteenth Note
Добавлено: 19.03.2016
Другие материалы по этой песне:
  • Аккорды и текст

Страница создана 26.03.2012
http://primanota.ru/prince/jack-u-off-chords.htm
Привет, Гость.
Предлагаем пройти революционный курс по гитаре.
Подарок от PrimaNota.Ru, забирай!