PrimaNota.ru - самый крупный в мире бесплатный архив песенных текстов, аккордов, табулатур и нот


Primal Fear - Final Embrace - текст песни, таба, бас-таба, видео

Регистрация Запомнить меня
Войти через:  Facebook Google Twitter Vk Yandex Mail.ru

Primal Fear - Final Embrace - текст песни, таба, бас-таба, видео

Печатать
Просмотров: 182
As recorded by Primal Fear
(From the 1999 Album JAWS OF DEATH)

Transcribed by Pete (Delirium_Veil)
        

Words by Scheepers, Sinner Music by Naumann, Sinner
Arranged by Primal Fear

Gtr I (E A D G B E) - 'Tom Naumann'
Gtr II (E A D G B E) - 'Stefan Leibing'
Gtr III (E A D G B E) - 'Solo rhythm'

   Intro
    Q=200
    D5E5                    F5   D5
   4/4
    Gtr I
        PM|   PM--|     PM|    PM  PM|
    E E E E E E E E   E E E  E E E E E
||------------------|------------------|
||o-----------------|------------------|
||--7s9-----9-------|-9-----10---7-----|
||--7s9-----9-------|-9-----10---7-----|
||o-5s7-----7-------|-7------8---5-----|
||------0-0---0-0-0-|---0-0----0---0-0-|


    E5                    G5   F5
      PM|   PM--|     PM|    PM   PM|
  E E E E E E E E   E E E  E E  E E E
|-----------------|---------------------||
|-----------------|--------------------o||
|-7s9-----9-------|-9-----12---10-------||
|-7s9-----9-------|-9-----12---10-------||
|-5s7-----7-------|-7-----10----8------o||
|-----0-0---0-0-0-|---0-0----0----0-0---||


    D5E5                    F5   D5
    Gtrs I, II
        PM|   PM--|     PM|    PM  PM|
    E E E E E E E E   E E E  E E E E E
||------------------|------------------|
||o-----------------|------------------|
||--7s9-----9-------|-9-----10---7-----|
||--7s9-----9-------|-9-----10---7-----|
||o-5s7-----7-------|-7------8---5-----|
||------0-0---0-0-0-|---0-0----0---0-0-|


    E5                    G5   F5
      PM|   PM--|     PM|    PM   PM|
  E E E E E E E E   E E E  E E  E E E
|-----------------|---------------------||
|-----------------|--------------------o||
|-7s9-----9-------|-9-----12---10-------||
|-7s9-----9-------|-9-----12---10-------||
|-5s7-----7-------|-7-----10----8------o||
|-----0-0---0-0-0-|---0-0----0----0-0---||


  D5     E5                       F5   D5
           PM|   PM--|        PM|    PM  PM|
   E     E E E E E E E     E  E E  E E E E E
|----------------------|---------------------|
|----------------------|---------------------|
|--7s====9-----9-------|---9------10---7-----|
|--7s====9-----9-------|---9------10---7-----|
|--5s====7-----7-------|---7-------8---5-----|
|----------0-0---0-0-0-|------0-0----0---0-0-|
|
| Gtr III
|                          ~~~~
|  W                      +W
|----------------------|---------------------|
|-15b17================|=(15)----------------|
|----------------------|---------------------|
|----------------------|---------------------|
|----------------------|---------------------|
|----------------------|---------------------|


         E5                       G5   F5
           PM|   PM--|        PM|    PM   PM|
   E     E E E E E E E     E  E E  E E  E E E
|----------------------|----------------------|
|----------------------|----------------------|
|--7s====9-----9-------|---9------12---10-----|
|--7s====9-----9-------|---9------12---10-----|
|--5s====7-----7-------|---7------10----8-----|
|----------0-0---0-0-0-|------0-0----0----0-0-|
|
|                          ~~~~
|  W                      +W
|-17b19================|=(17)-----------------|
|----------------------|----------------------|
|----------------------|----------------------|
|----------------------|----------------------|
|----------------------|----------------------|
|----------------------|----------------------|


  D5     E5                       F5   D5
           PM|   PM--|        PM|    PM  PM|
   E     E E E E E E E     E  E E  E E E E E
|----------------------|---------------------|
|----------------------|---------------------|
|--7s====9-----9-------|---9------10---7-----|
|--7s====9-----9-------|---9------10---7-----|
|--5s====7-----7-------|---7-------8---5-----|
|----------0-0---0-0-0-|------0-0----0---0-0-|
|
|                          ~~~~
|  W                      +W
|-20b22================|=(20)----------------|
|----------------------|---------------------|
|----------------------|---------------------|
|----------------------|---------------------|
|----------------------|---------------------|
|----------------------|---------------------|


  E5    B5  C5  D5    A5  B5A5
      PM  PM  PM    PM  PM       ~~~
  E E E E E E E E   E E E E Q    Q
|-----------------|-------------------|
|-----------------|-------------------|
|-9-9---4---5---7-|---2---4-2---------|
|-9-9---4---5---7-|---2---4-2---------|
|-7-7---2---3---5-|---0---2-0---------|
|-----0---0---0---|-0---0-------[3]---|
|
| E E E E E E E E   E E E E E E  E E
|-----------------|-------------------|
|-----------------|-------------------|
|-----------------|-------------------|
|-----------------|-------------------|
|-xSxSxSxSxSxSxSxS|=xSxSxSxSxSxS=xSx\-|
|-xSxSxSxSxSxSxSxS|=xSxSxSxSxSxS=xSx\-|


 Verse
  $
  E5
  W          +W           +W           +W
|----------|------------|------------|--------|
|----------|------------|------------|--------|
|----------|------------|------------|--------|
|-2--------|-(2)--------|-(2)--------|-(2)----|
|-2--------|-(2)--------|-(2)--------|-(2)----|
|-0--------|-(0)--------|-(0)--------|-(0)----|


                            C5         B5
  +W           +W           W          H     H
|------------|------------|----------|-------------|
|------------|------------|----------|-------------|
|------------|------------|-7--------|-4-----------|
|-(2)--------|-(2)--------|-7--------|-4-----------|
|-(2)--------|-(2)--------|-5--------|-2-----------|
|-(0)--------|-(0)--------|----------|------[3]----|


  Em                            D     Em                            F#m
    PM|   PM|   PM--|   PM|   PM  PM    PM|   PM|   PM--|   PM|   PM  PM
  E E E E E E E E   E E E E E E E E   E E E E E E E E   E E E E E E E E
|-----------------|-----------------|-----------------|-----------------|
|-----------------|-----------------|-----------------|-----------------|
|-----------------|-----------------|-----------------|-----------------|
|-5-----5-----5---|---5-----5---4---|-5-----5-----5---|---5-----5---7---|
|-7-----7-----7---|---7-----7---5---|-7-----7-----7---|---7-----7---9---|
|---0-0---0-0---0-|-0---0-0---0---0-|---0-0---0-0---0-|-0---0-0---0---0-|


  Em                            D     D5         A5   B5
    PM|   PM|   PM--|   PM|   PM  PM
  E E E E E E E E   E E E E E E E E   W          H    H
|-----------------|-----------------|----------|-----------|
|-----------------|-----------------|----------|-----------|
|-----------------|-----------------|-7--------|-2----4----|
|-5-----5-----5---|---5-----5---4---|-7--------|-2----4----|
|-7-----7-----7---|---7-----7---5---|-5--------|-0----2----|
|---0-0---0-0---0-|-0---0-0---0---0-|----------|-----------|


 Pre-Chorus
  C5                      N.C.
  W          +W           E E E E E E E E   E E E E E E E E
|----------|------------|-----------------|-----------------|
|----------|------------|-----------------|-----------------|
|-5--------|-(5)--------|-----------------|-----------------|
|-5--------|-(5)--------|-----------------|-----------------|
|-3--------|-(3)--------|-------0-2-0-----|-5-3-2-0-3-2-0---|
|----------|------------|-0-2-3-------3-0-|---------------3-|


  C5                      E5   D5     B5
  W          +W           H    H      H     H
|----------|------------|-----------|-------------|
|----------|------------|-----------|-------------|
|-5--------|-(5)--------|------7----|-4-----------|
|-5--------|-(5)--------|-2----7----|-4-----------|
|-3--------|-(3)--------|-2----5----|-2-----------|
|----------|------------|-0---------|------[3]----|


  C5                      D5
  W          +W           W          +W
|----------|------------|----------|--------|
|----------|------------|----------|--------|
|-5--------|-(5)--------|-7--------|-(7)----|
|-5--------|-(5)--------|-7--------|-(7)----|
|-3--------|-(3)--------|-5--------|-(5)----|
|----------|------------|----------|--------|


  Eb°7                    B5
                                      ~~~
  W          +W           W           W
|----------|------------|----------|--------|
|----------|------------|----------|--------|
|-5--------|-(5)--------|-4--------|-[4]----|
|-7--------|-(7)--------|-4--------|--------|
|-6--------|-(6)--------|-2--------|--------|
|----------|------------|----------|--------|


 Chorus
  E5         C5         D5         G5
  W          W          W          W
|----------|----------|----------|------|
|----------|----------|----------|------|
|----------|-5--------|-7--------|------|
|-2--------|-5--------|-7--------|-5----|
|-2--------|-3--------|-5--------|-5----|
|-0--------|----------|----------|-3----|


  E5         C5         G5         D5
  W          W          W          W
|----------|----------|----------|------|
|----------|----------|----------|------|
|----------|-5--------|----------|-7----|
|-2--------|-5--------|-5--------|-7----|
|-2--------|-3--------|-5--------|-5----|
|-0--------|----------|-3--------|------|


                                                  To Coda
  E5         G5         A5         D5         C5         D5
  W          W          W          W          W          W
|----------|----------|----------|----------|----------|------|
|----------|----------|----------|----------|----------|------|
|----------|----------|----------|-7--------|-5--------|-7----|
|-2--------|-5--------|-7--------|-7--------|-5--------|-7----|
|-2--------|-5--------|-7--------|-5--------|-3--------|-5----|
|-0--------|-3--------|-5--------|----------|----------|------|


  D5E5                    F5   D5        E5                    G5   F5
      PM|   PM--|     PM|    PM  PM|       PM|   PM--|     PM|    PM   PM|
  E E E E E E E E   E E E  E E E E E   E E E E E E E E   E E E  E E  E E E
|-----------------|------------------|-----------------|-------------------|
|-----------------|------------------|-----------------|-------------------|
|-7s9-----9-------|-9-----10---7-----|-7s9-----9-------|-9-----12---10-----|
|-7s9-----9-------|-9-----10---7-----|-7s9-----9-------|-9-----12---10-----|
|-5s7-----7-------|-7------8---5-----|-5s7-----7-------|-7-----10----8-----|
|-----0-0---0-0-0-|---0-0----0---0-0-|-----0-0---0-0-0-|---0-0----0----0-0-|


                                       &                D.S. al Coda
  D5E5                    F5   D5      E5    B5  C5  D5    A5  B5A5
      PM|   PM--|     PM|    PM  PM|       PM  PM  PM    PM  PM      ~~~
  E E E E E E E E   E E E  E E E E E   E E E E E E E E   E E E E Q   Q
|-----------------|------------------|-----------------|-----------------||
|-----------------|------------------|-----------------|-----------------||
|-7s9-----9-------|-9-----10---7-----|-9-9---4---5---7-|---2---4-2-------||
|-7s9-----9-------|-9-----10---7-----|-9-9---4---5---7-|---2---4-2-------||
|-5s7-----7-------|-7------8---5-----|-7-7---2---3---5-|---0---2-0-------||
|-----0-0---0-0-0-|---0-0----0---0-0-|-----0---0---0---|-0---0------[3]--||


 Bridge
  F#5                  G5 F#5E5   F#5                  G5 F#5A5
     PM--------------|               PM--------------|
  Q  E E E E E E   E E Q  Q  Q    Q  E E E E E E   E E Q  Q  Q
|----------------|--------------|----------------|---------------|
|----------------|--------------|----------------|---------------|
|----------------|--------------|----------------|---------------|
|-4--------------|-----5--4--2--|-4--------------|-----5--4--7---|
|-4--------------|-----5--4--2--|-4--------------|-----5--4--7---|
|-2--2-2-2-2-2-2-|-2-2-3--2--0--|-2--2-2-2-2-2-2-|-2-2-3--2--5---|


  F#5                  G5 F#5E5   F#5                  G5 F#5A5
     PM--------------|               PM--------------|
  Q  E E E E E E   E E Q  Q  Q    Q  E E E E E E   E E Q  Q  Q
|----------------|--------------|----------------|---------------||
|----------------|--------------|----------------|---------------||
|----------------|--------------|----------------|---------------||
|-4--------------|-----5--4--2--|-4--------------|-----5--4--7---||
|-4--------------|-----5--4--2--|-4--------------|-----5--4--7---||
|-2--2-2-2-2-2-2-|-2-2-3--2--0--|-2--2-2-2-2-2-2-|-2-2-3--2--5---||


  G#5                  A5 G#5F#5  G#5                  A5 G#5B5
     PM--------------|               PM--------------|
  Q  E E E E E E   E E Q  Q  Q    Q  E E E E E E   E E Q  Q  Q
|----------------|--------------|----------------|---------------|
|----------------|--------------|----------------|---------------|
|----------------|--------------|----------------|---------------|
|-6--------------|-----7--6--4--|-6--------------|-----7--6--9---|
|-6--------------|-----7--6--4--|-6--------------|-----7--6--9---|
|-4--4-4-4-4-4-4-|-4-4-5--4--2--|-4--4-4-4-4-4-4-|-4-4-5--4--7---|


  G#5                  A5 G#5F#G5 G#5
     PM--------------|               PM--------------------------|
  Q  E E E E E E   E E Q  Q  Q    Q  E E E E E E   E E E E E E E E
|----------------|--------------|----------------|------------------||
|----------------|--------------|----------------|------------------||
|----------------|--------------|----------------|------------------||
|-6--------------|-----7--6--4--|-6--------------|------------------||
|-6--------------|-----7--6--4--|-6--------------|-6-6-6-6-6-6-6-6--||
|-4--4-4-4-4-4-4-|-4-4-5--4--2--|-4--4-4-4-4-4-4-|-4-4-4-4-4-4-4-4--||


   Interlude
    B5                         A5
    Gtr I
     W          +W              W          +W
||------------|--------------|-----------|--------|
||o-----------|--------------|-----------|--------|
||---4--------|-(4)----------|--2--------|-(2)----|
||---4--------|-(4)----------|--2--------|-(2)----|
||o--2--------|-(2)----------|--0--------|-(0)----|
||------------|--------------|-----------|--------|
|
|   Gtr II
|    W           H      H       W           W
||------------|--------------|-----------|--------|
||o-----------|--------------|-----------|--------|
||------------|--------------|-----------|--------|
||------------|--------------|-----------|--------|
||o--2--------|--4------5----|-----------|--------|
||------------|--------------|--5--------|--2-----|
|
|   Gtr III
|    W           H      H       W           W
||------------|--------------|-----------|--------|
||o-----------|-14-----15----|-----------|--------|
||--16--------|--------------|-14--------|-11-----|
||------------|--------------|-----------|--------|
||o-----------|--------------|-----------|--------|
||------------|--------------|-----------|--------|


  1.
  B5                         G5
   W          +W              W                      +W
|-----------|--------------|-----------------------|---------||
|-----------|--------------|-----------------------|--------o||
|--4--------|-(4)----------|-----------------------|---------||
|--4--------|-(4)----------|--5--------------------|-(5)-----||
|--2--------|-(2)----------|--5--------------------|-(5)----o||
|-----------|--------------|--3--------------------|-(3)-----||
|
|  W           H      H       W                       W
|-----------|--------------|-----------------------|---------||
|-----------|--------------|-----------------------|--------o||
|-----------|--------------|-----------------------|---------||
|-----------|--------------|--4--------------------|--2------||
|--2--------|--4------5----|-----------------------|--------o||
|-----------|--------------|-----------------------|---------||
|
|                                                     ~~~
|  W           H      H       H.          +E   +E     W
|-----------|--------------|-----------------------|---------||
|-----------|-14-----15----|-17b19=======(17)r(17)-|-17-----o||
|-16--------|--------------|-----------------------|---------||
|-----------|--------------|-----------------------|---------||
|-----------|--------------|-----------------------|--------o||
|-----------|--------------|-----------------------|---------||


  2.
  G5                         E5                      F#5
   W          +W              W                       W
|-----------|--------------|-----------------------|-------||
|-----------|--------------|-----------------------|-------||
|-----------|--------------|-----------------------|-------||
|--5--------|-(5)----------|--2--------------------|--4----||
|--5--------|-(5)----------|--2--------------------|--4----||
|--3--------|-(3)----------|--0--------------------|--2----||
|
|  W           H      H       W                       W
|-----------|--------------|-----------------------|-------||
|-----------|--------------|-----------------------|-------||
|-----------|--------------|-----------------------|-------||
|-----------|--------------|--4--------------------|--2----||
|-----------|--------------|-----------------------|-------||
|--3--------|--2------3----|-----------------------|-------||
|
|                                                     ~~
|  W           H      H       H.          +E   +E     W
|-----------|--------------|-----------------------|-------||
|-----------|--------------|-17b19=======(17)r(17)-|-17----||
|-12--------|-11-----12----|-----------------------|-------||
|-----------|--------------|-----------------------|-------||
|-----------|--------------|-----------------------|-------||
|-----------|--------------|-----------------------|-------||


 Guitar Solo
  E5                                    C5
   W                                     W
|-------------------------------------|-------------------------------------|
|-------------------------------------|-------------------------------------|
|-------------------------------------|--5----------------------------------|
|--2----------------------------------|--5----------------------------------|
|--2----------------------------------|--3----------------------------------|
|--0----------------------------------|-------------------------------------|
|
|  |--3--|  |--3--|  |--3--|  |--3--|    |--3--|  |--3--|  |--3--|  |--3--|
|  E  E  E  E  E  E  E  E  E  E  E  E    E  E  E  E  E  E  E  E  E  E  E  E
|-19p15----------15-19p15----------15-|-15p12----------12-15p12----------12-|
|-------17----17----------17----17----|-------13----13----------13----13----|
|----------16----------------16-------|----------12----------------12-------|
|-------------------------------------|-------------------------------------|
|-------------------------------------|-------------------------------------|
|-------------------------------------|-------------------------------------|
|
|  |--3--|  |--3--|  |--3--|  |--3--|    |--3--|  |--3--|  |--3--|  |--3--|
|  E  E  E  E  E  E  E  E  E  E  E  E    E  E  E  E  E  E  E  E  E  E  E  E
|-22p19----------19-22p19----------19-|-19p15----------15-19p15----------15-|
|-------20----20----------20----20----|-------17----17----------17----17----|
|----------19----------------19-------|----------16----------------16-------|
|-------------------------------------|-------------------------------------|
|-------------------------------------|-------------------------------------|
|-------------------------------------|-------------------------------------|


  D5
   W
|--------------------------------------|
|--------------------------------------|
|--7-----------------------------------|
|--7-----------------------------------|
|--5-----------------------------------|
|--------------------------------------|
|
|  |--3--|  |--3--|  |--3--|  |--3--|
|  E  E  E  E  E  E  E  E  E  E  E  E
|-17p14----------14-17p14----------14--|
|-------15----15----------15----15-----|
|----------14----------------14--------|
|--------------------------------------|
|--------------------------------------|
|--------------------------------------|
|
|  |--3--|  |--3--|  |--3--|  |--3--|
|  E  E  E  E  E  E  E  E  E  E  E  E
|-20p17----------17-20p17----------17--|
|-------19----19----------19----19-----|
|----------17----------------17--------|
|--------------------------------------|
|--------------------------------------|
|--------------------------------------|


  B5                                    E5
   W                                     W
|-------------------------------------|-------------------------------------|
|-------------------------------------|-------------------------------------|
|--4----------------------------------|-------------------------------------|
|--4----------------------------------|--2----------------------------------|
|--2----------------------------------|--2----------------------------------|
|-------------------------------------|--0----------------------------------|
|
|  |--3--|  |--3--|  |--3--|  |--3--|    |--3--|  |--3--|  |--3--|  |--3--|
|  E  E  E  E  E  E  E  E  E  E  E  E    E  E  E  E  E  E  E  E  E  E  E  E
|-14p11----------11-14p11----------11-|-19p15----------15-19p15----------15-|
|-------12----12----------12----12----|-------17----17----------17----17----|
|----------11----------------11-------|----------16----------------16-------|
|-------------------------------------|-------------------------------------|
|-------------------------------------|-------------------------------------|
|-------------------------------------|-------------------------------------|
|
|  |--3--|  |--3--|  |--3--|  |--3--|    |--3--|  |--3--|  |--3--|  |--3--|
|  E  E  E  E  E  E  E  E  E  E  E  E    E  E  E  E  E  E  E  E  E  E  E  E
|-17p14----------14-17p14----------14-|-22p19----------19-22p19----------19-|
|-------16----16----------16----16----|-------20----20----------20----20----|
|----------16----------------16-------|----------19----------------19-------|
|-------------------------------------|-------------------------------------|
|-------------------------------------|-------------------------------------|
|-------------------------------------|-------------------------------------|


  C5
   W
|--------------------------------------|
|--------------------------------------|
|--5-----------------------------------|
|--5-----------------------------------|
|--3-----------------------------------|
|--------------------------------------|
|
|  |--3--|  |--3--|  |--3--|  |--3--|
|  E  E  E  E  E  E  E  E  E  E  E  E
|-15p12----------12-15p12----------12--|
|-------13----13----------13----13-----|
|----------12----------------12--------|
|--------------------------------------|
|--------------------------------------|
|--------------------------------------|
|
|  |--3--|  |--3--|  |--3--|  |--3--|
|  E  E  E  E  E  E  E  E  E  E  E  E
|-19p15----------15-19p15----------15--|
|-------17----17----------17----17-----|
|----------16----------------16--------|
|--------------------------------------|
|--------------------------------------|
|--------------------------------------|


  D5                                    B5
   W                                     W
|-------------------------------------|-------------------------------------|
|-------------------------------------|-------------------------------------|
|--7----------------------------------|--4----------------------------------|
|--7----------------------------------|--4----------------------------------|
|--5----------------------------------|--2----------------------------------|
|-------------------------------------|-------------------------------------|
|
|  |--3--|  |--3--|  |--3--|  |--3--|    |--3--|  |--3--|  |--3--|  |--3--|
|  E  E  E  E  E  E  E  E  E  E  E  E    E  E  E  E  E  E  E  E  E  E  E  E
|-17p14----------14-17p14----------14-|-15p14p12-14p12----12----------------|
|-------15----15----------15----15----|----------------15----15p13-15p13s12-|
|----------14----------------14-------|-------------------------------------|
|-------------------------------------|-------------------------------------|
|-------------------------------------|-------------------------------------|
|-------------------------------------|-------------------------------------|
|
|  |--3--|  |--3--|  |--3--|  |--3--|    |--3--|  |--3--|  |--3--|  |--3--|
|  E  E  E  E  E  E  E  E  E  E  E  E    E  E  E  E  E  E  E  E  E  E  E  E
|-20p17----------17-20p17----------17-|-19p17p15-17p15----15----------------|
|-------19----19----------19----19----|----------------19----19p17-19p17s15-|
|----------17----------------17-------|-------------------------------------|
|-------------------------------------|-------------------------------------|
|-------------------------------------|-------------------------------------|
|-------------------------------------|-------------------------------------|


  E5
   W
|--------------------------------------|
|--------------------------------------|
|--------------------------------------|
|--2-----------------------------------|
|--2-----------------------------------|
|--0-----------------------------------|
|
|  |--3--|  |--3--|  |--3--|  |--3--|
|  E  E  E  E  E  E  E  E  E  E  E  E
|-19p15----------15-19p15----------15--|
|-------17----17----------17----17-----|
|----------16----------------16--------|
|--------------------------------------|
|--------------------------------------|
|--------------------------------------|
|
|  |--3--|  |--3--|  |--3--|  |--3--|
|  E  E  E  E  E  E  E  E  E  E  E  E
|-22p19----------19-22p19----------19--|
|-------20----20----------20----20-----|
|----------19----------------19--------|
|--------------------------------------|
|--------------------------------------|
|--------------------------------------|


  C5                                    D5
   W                                     W
|-------------------------------------|-------------------------------------|
|-------------------------------------|-------------------------------------|
|--5----------------------------------|--7----------------------------------|
|--5----------------------------------|--7----------------------------------|
|--3----------------------------------|--5----------------------------------|
|-------------------------------------|-------------------------------------|
|
|  |--3--|  |--3--|  |--3--|  |--3--|    |--3--|  |--3--|  |--3--|  |--3--|
|  E  E  E  E  E  E  E  E  E  E  E  E    E  E  E  E  E  E  E  E  E  E  E  E
|-15p12----------12-15p12----------12-|-17p14----------14-17p14----------14-|
|-------13----13----------13----13----|-------15----15----------15----15----|
|----------12----------------12-------|----------14----------------14-------|
|-------------------------------------|-------------------------------------|
|-------------------------------------|-------------------------------------|
|-------------------------------------|-------------------------------------|
|
|  |--3--|  |--3--|  |--3--|  |--3--|    |--3--|  |--3--|  |--3--|  |--3--|
|  E  E  E  E  E  E  E  E  E  E  E  E    E  E  E  E  E  E  E  E  E  E  E  E
|-19p15----------15-19p15----------15-|-20p17----------17-20p17----------17-|
|-------17----17----------17----17----|-------19----19----------19----19----|
|----------16----------------16-------|----------17----------------17-------|
|-------------------------------------|-------------------------------------|
|-------------------------------------|-------------------------------------|
|-------------------------------------|-------------------------------------|


  B5
   W
|--------------------------------------|
|--------------------------------------|
|--4-----------------------------------|
|--4-----------------------------------|
|--2-----------------------------------|
|--------------------------------------|
|
|  |--3--|  |--3--|  |--3--|  |--3--|
|  E  E  E  E  E  E  E  E  E  E  E  E
|-15p14p12-14p12----12-----------------|
|----------------15----15p13-15p13s12--|
|--------------------------------------|
|--------------------------------------|
|--------------------------------------|
|--------------------------------------|
|
|  |--3--|  |--3--|  |--3--|  |--3--|
|  E  E  E  E  E  E  E  E  E  E  E  E
|-19p17p15-17p15----15-----------------|
|----------------19----19p17-19p17s15--|
|--------------------------------------|
|--------------------------------------|
|--------------------------------------|
|--------------------------------------|


  C5                G5                A5                B5
   W                 W                 W                 W
|-----------------|-----------------|-----------------|-----------------------|
|-----------------|-----------------|-----------------|-----------------------|
|--5--------------|-----------------|--2--------------|--4--------------------|
|--5--------------|--5--------------|--2--------------|--4--------------------|
|--3--------------|--5--------------|--0--------------|--2--------------------|
|-----------------|--3--------------|-----------------|-----------------------|
|
|  ~~~~~~~~~~~~~~~~~~~~~~~~~~~~~~~~    TP    TP    TP    TP
|  Q.    Q.    Q     Q.    Q.    Q     Q.    Q.    Q     Q.    Q.       +Q
|-----------------|-----------------|-------12----14--|-15----15b17====(15)r==|
|-----------------|-------12----13--|-15--------------|-----------------------|
|-------11----12--|-14--------------|-----------------|-----------------------|
|-14--------------|-----------------|-----------------|-----------------------|
|-----------------|-----------------|-----------------|-----------------------|
|-----------------|-----------------|-----------------|-----------------------|
|
|  ~~~~~~~~~~~~~~~~~~~~~~~~~~~~~~~~    TP    TP    TP    TP
|  Q.    Q.    Q     Q.    Q.    Q     Q.    Q.    Q     Q.    Q.       +Q
|-----------------|-----------------|-------15----17--|-19----19b20====(19)r==|
|-----------------|-------15----17--|-19--------------|-----------------------|
|-------14----16--|-17--------------|-----------------|-----------------------|
|-17--------------|-----------------|-----------------|-----------------------|
|-----------------|-----------------|-----------------|-----------------------|
|-----------------|-----------------|-----------------|-----------------------|


 Bridge
  C5
   W
|-----------------------------------|
|-----------------------------------|
|--5--------------------------------|
|--5--------------------------------|
|--3--------------------------------|
|-----------------------------------|
|
|  Q      +Q       +Q       +Q
|-15b17r=(15)b17r=(15)b17r=(15)b17r=|
|-----------------------------------|
|-----------------------------------|
|-----------------------------------|
|-----------------------------------|
|-----------------------------------|
|
|  Q      +Q       +Q       +Q
|-19b20r=(19)b20r=(19)b20r=(19)b20r=|
|-----------------------------------|
|-----------------------------------|
|-----------------------------------|
|-----------------------------------|
|-----------------------------------|


                   N.C.
                   Gtrs I, II
  +W               E E E E E E E E   E E E E E E E E
|----------------|-----------------|-----------------|
|----------------|-----------------|-----------------|
|-(5)------------|-----------------|-----------------|
|-(5)------------|-----------------|-----------------|
|-(3)------------|-------0-2-0-----|-5-3-2-0-3-2-0---|
|----------------|-0-2-3-------3-0-|---------------3-|
|
|           ~~
|  H        H      W                 W
|-17b19----15----|-----------------|-----------------|
|----------------|-----------------|-----------------|
|----------------|-----------------|-----------------|
|----------------|-----------------|-----------------|
|----------------|-----------------|-----------------|
|----------------|-----------------|-----------------|
|
|           ~~
|  H        H      W                 W
|-20b22----19----|-----------------|-----------------|
|----------------|-----------------|-----------------|
|----------------|-----------------|-----------------|
|----------------|-----------------|-----------------|
|----------------|-----------------|-----------------|
|----------------|-----------------|-----------------|


  C5                      E5   D5     B5
                                            ~~~
  W          +W           H    H      H     H
|----------|------------|-----------|-------------|
|----------|------------|-----------|-------------|
|-5--------|-(5)--------|------7----|-4-----------|
|-5--------|-(5)--------|-2----7----|-4-----------|
|-3--------|-(3)--------|-2----5----|-2-----------|
|----------|------------|-0---------|------[3]----|


  C5                      D5
  W          +W           W          +W
|----------|------------|----------|--------|
|----------|------------|----------|--------|
|-5--------|-(5)--------|-7--------|-(7)----|
|-5--------|-(5)--------|-7--------|-(7)----|
|-3--------|-(3)--------|-5--------|-(5)----|
|----------|------------|----------|--------|


  Eb°7                    B5
                                      ~~~
  W          +W           W           W
|----------|------------|----------|--------|
|----------|------------|----------|--------|
|-5--------|-(5)--------|-4--------|-[4]----|
|-7--------|-(7)--------|-4--------|--------|
|-6--------|-(6)--------|-2--------|--------|
|----------|------------|----------|--------|


  N.C.
  Gtr II
  \2.5___________________/
  W              +H     +H
|--------------|---------------|
|--------------|---------------|
|--------------|---------------|
|--------------|---------------|
|--------------|---------------|
|-0------------|-(0)----(0)----|


   Chorus
    E5         C5         D5         G5
    Gtrs I, II
    W          W          W          W
||-----------|----------|----------|------|
||o----------|----------|----------|------|
||-----------|-5--------|-7--------|------|
||--2--------|-5--------|-7--------|-5----|
||o-2--------|-3--------|-5--------|-5----|
||--0--------|----------|----------|-3----|


  E5         C5         G5         D5
  W          W          W          W
|----------|----------|----------|------|
|----------|----------|----------|------|
|----------|-5--------|----------|-7----|
|-2--------|-5--------|-5--------|-7----|
|-2--------|-3--------|-5--------|-5----|
|-0--------|----------|-3--------|------|


  E5         G5         A5         D5
  W          W          W          W
|----------|----------|----------|------|
|----------|----------|----------|------|
|----------|----------|----------|-7----|
|-2--------|-5--------|-7--------|-7----|
|-2--------|-5--------|-7--------|-5----|
|-0--------|-3--------|-5--------|------|


  C5         D5
  W          W
|----------|-------||
|----------|------o||
|-5--------|-7-----||
|-5--------|-7-----||
|-3--------|-5----o||
|----------|-------||


   Outro
    D5E5                    F5   D5
        PM|   PM--|     PM|    PM  PM|
    E E E E E E E E   E E E  E E E E E
||------------------|------------------|
||o-----------------|------------------|
||--7s9-----9-------|-9-----10---7-----|
||--7s9-----9-------|-9-----10---7-----|
||o-5s7-----7-------|-7------8---5-----|
||------0-0---0-0-0-|---0-0----0---0-0-|


 1.,2.,3.
    E5                    G5   F5
      PM|   PM--|     PM|    PM   PM|
  E E E E E E E E   E E E  E E  E E E   4x
|-----------------|---------------------||
|-----------------|--------------------o||
|-7s9-----9-------|-9-----12---10-------||
|-7s9-----9-------|-9-----12---10-------||
|-5s7-----7-------|-7-----10----8------o||
|-----0-0---0-0-0-|---0-0----0----0-0---||


  4.
  E5        B5    C5     D5      A5    B5  A5
          PM    PM     PM      PM    PM           ~~~~
   E   E  E  E  E   E  E  E    E  E  E  E   Q     Q
|----------------------------|------------------------|
|----------------------------|------------------------|
|--9---9-----4------5-----7--|----2-----4---2---------|
|--9---9-----4------5-----7--|----2-----4---2---------|
|--7---7-----2------3-----5--|----0-----2---0---------|
|---------0-----0------0-----|-0-----0-----------[3]--|
|
| Gtr III
|  E   E  E  E  E   E  E  E    E  E  E  E   Q     Q
|----------------------------|------------------------|
|----------------------------|------------------------|
|-[9]-[9]----------------[7]-|------------------------|
|-----------[9]---[10]-------|---[7]---[9]-[7]--------|
|----------------------------|------------------[10]--|
|----------------------------|------------------------|


  E5        B5    C5     D5      A5    B5  A5
          PM    PM     PM      PM    PM           ~~~~
   E   E  E  E  E   E  E  E    E  E  E  E   Q     Q
|----------------------------|------------------------|
|----------------------------|------------------------|
|--9---9-----4------5-----7--|----2-----4---2---------|
|--9---9-----4------5-----7--|----2-----4---2---------|
|--7---7-----2------3-----5--|----0-----2---0---------|
|---------0-----0------0-----|-0-----0-----------[3]--|
|
|  E   E  E  E  E   E  E  E    E  E  E  E   Q     Q
|----------------------------|------------------------|
|----------------------------|------------------------|
|-[9]-[9]----------------[7]-|------------------------|
|-----------[9]---[10]-------|---[7]---[9]-[7]--------|
|----------------------------|------------------[10]--|
|----------------------------|------------------------|


  E5        B5    C5     D5      A5    B5  A5
          PM    PM     PM      PM    PM           ~~~~
   E   E  E  E  E   E  E  E    E  E  E  E   Q     Q
|----------------------------|------------------------|
|----------------------------|------------------------|
|--9---9-----4------5-----7--|----2-----4---2---------|
|--9---9-----4------5-----7--|----2-----4---2---------|
|--7---7-----2------3-----5--|----0-----2---0---------|
|---------0-----0------0-----|-0-----0-----------[3]--|
|
|  E   E  E  E  E   E  E  E    E  E  E  E   Q     Q
|----------------------------|------------------------|
|----------------------------|------------------------|
|-[9]-[9]----------------[7]-|------------------------|
|-----------[9]---[10]-------|---[7]---[9]-[7]--------|
|----------------------------|------------------[10]--|
|----------------------------|------------------------|


  E5        B5    C5     E5          D5  E5
          PM    PM     PM
   E   E  E  E  E   E  E  E     +E    E   Q   H
|----------------------------|---------------------*|
|----------------------------|---------------------*|
|--9---9-----4------5-----9--|--(9)---7---9\-------*|
|--9---9-----4------5-----9--|--(9)---7---9\-------*|
|--7---7-----2------3-----7--|--(7)---5---7\-------*|
|---------0-----0------0-----|---------------------*|
|
|  E   E  E  E  E   E  E  E     +E    E   Q   H
|----------------------------|---------------------*|
|----------------------------|---------------------*|
|-[9]-[9]----------------[9]-|-([9])-[7]-[9]-------*|
|-----------[9]---[10]-------|---------------------*|
|----------------------------|---------------------*|
|----------------------------|---------------------*|



Duration Legend
---------------
W - whole; H - half; Q - quarter; E - 8th; S - 16th; T - 32nd; X - 64th; a - acciaccatura
+ - note tied to previous; . - note dotted; .. - note double dotted
Uncapitalized letters represent notes that are staccato (1/2 duration)
Irregular groupings are notated above the duration line
Duration letters will always appear directly above the note/fret number it represents the
duration for.  Duration letters with no fret number below them represent rests.  Multi-
bar rests are notated in the form Wxn, where n is the number of bars to rest for.  Low
melody durations appear below the staff

Tablature Legend
----------------
 h   - hammer-on
 p   - pull-off
 b   - bend
 pb  - pre-bend
 r   - bend release (if no number after the r, then release immediately)
 /\  - slide into or out of (from/to "nowhere")
 s   - legato slide
 S   - shift slide
 - natural harmonic
[n]  - artificial harmonic
n(n) - tapped harmonic
 ~   - vibrato
 tr  - trill
 T   - tap
 TP  - trem. picking
 PM  - palm muting
\n/  - tremolo bar dip; n = amount to dip
 \n  - tremolo bar down
 n/  - tremolo bar up
/n\  - tremolo bar inverted dip
 =   - hold bend; also acts as connecting device for hammers/pulls
 <> - volume swell (louder/softer)
 x   - on rhythm slash represents muted slash
 o   - on rhythm slash represents single note slash

Misc Legend
-----------
 |  - bar
||  - double bar
||o - repeat start
o|| - repeat end
*|  - double bar (ending)
 :  - bar (freetime)
 $  - Segno
 &  - Coda
Tempo markers -  = BPM(8/16=s8/s16), where s8 = swing 8ths, s16 = swing 16ths

Добавлено: 04.06.2012
Другие материалы по этой песне:

Страница создана 28.03.2012
http://primanota.ru/primal-fear/final-embrace-chords.htm
Привет, Гость.
Предлагаем пройти революционный курс по гитаре.
Подарок от PrimaNota.Ru, забирай!