PrimaNota.ru - самый крупный в мире бесплатный архив песенных текстов, аккордов, табулатур и нот


Primal Fear - Angel In Black - текст песни, таба, видео

Регистрация Запомнить меня
Войти через:  Facebook Google Twitter Vk Yandex Mail.ru

Primal Fear - Angel In Black - текст песни, таба, видео

Печатать
Просмотров: 243
Авторы: Primal Fear

Author/Artist: Primal Fear
Title: Angel in black
Album: Nuclear Fire 
Transcribed by: Nagy Krisztián
Email: krisznagy@netposta.net


Intro & Verse Riff :
G------------5------------------|--------------5-----------------
D---7----6-5------7-----7-5-6---|---7-----6-5--------7---------5-
A-----6-------------6---5-3-4---|------6---------------6--5-6----
E-------------------------------|--------------------------------

Pre-Chorus Riff:
D---5----7--------
A---3----5--------
E-----------------

Chorus Riff :
G----9-------9----5------5-----------------7--7--------
D----9-----9------5----5------7------7-----7----7------
A----7---7--------3--3--------7----7-------5------5----
E-----------------------------5--5---------------------

G----9-------9----5------5-----------------7-------------
D----9-----9------5----5------7------7-----7----7--5--6--
A----7---7--------3--3--------7----7-------5----5--3--4--
E-----------------------------5--5-----------------------




Nagy Krisztián

     
Добавлено: 15.08.2013
Другие материалы по этой песне:
  • Аккорды и текст

Страница создана 16.05.2012
http://primanota.ru/primal-fear/angel-in-black-chords.htm
Привет, Гость.
Предлагаем пройти революционный курс по гитаре.
Подарок от PrimaNota.Ru, забирай!