PrimaNota.ru - самый крупный в мире бесплатный архив песенных текстов, аккордов, табулатур и нот


Primal Fear - No Smoke Without Fire - текст песни, таба, видео

Регистрация Запомнить меня
Войти через:  Facebook Google Twitter Vk Yandex Mail.ru

Primal Fear - No Smoke Without Fire - текст песни, таба, видео

Печатать
Просмотров: 53
Tom: A


Guitarra I:

    W                             E  E   S S  Q     S  S  S S E
E|-----------------------------|---------------------------------|
B|-----------------------------|---------------------------------|
G|-----------------------------|--7--7--10-9----------------7----|
D|-----------------------------|-------------10----10-10-10---7--|
A|-----------------------------|---------------------------------|
E|-----------------------------|---------------------------------|


   Q.     Q    E  S S  E     E  E   S S  Q     S  S  S S E
|-------------------------|---------------------------------|
|-------------------------|---------------------------------|
|--7------7----7--7-9-10--|--7--7--10-9----------------7----|
|-------------------------|-------------10----10-10-10---7--|
|-------------------------|---------------------------------|
|-------------------------|---------------------------------|


    Q.      Q     E   S S  E     E  E   S S  Q     S  S  S S E
|-----------------------------|---------------------------------|
|-----------------------8-10--|---------------------------------|
|--10------10----10--10-------|--7--7--10-9----------------7----|
|-----------------------------|-------------10----10-10-10---7--|
|-----------------------------|---------------------------------|
|-----------------------------|---------------------------------|


   Q.     Q    E  S S  E     E  E   S S  Q     S  S  S S E
|-------------------------|---------------------------------|
|-------------------------|---------------------------------|
|--7------7----7--7-9-10--|--7--7--10-9----------------7----|
|-------------------------|-------------10----10-10-10---7--|
|-------------------------|---------------------------------|
|-------------------------|---------------------------------|


   Q.      Q     E   S S  E      W                   W

------------------------------|-------------------|-------------------|
-----------------------8-10~--|--L----------------|--L----------------|
--10------10----10--10--------|-------------------|-------------------|
------------------------------|-------------------|-------------------|
------------------------------|-------------------|-------------------|
------------------------------|-------------------|-------------------|


   S                                   S S E.  S E.  Q    E
|------------------------------------------------------------|
|------------------------------------------------------------|
|------------------------------------------------------------|
|--5-----------------------------------5-5-----5-----5----3--|
|--5-----------------------------------5-5-----5-----5----3--|
|--3-----------------------------------3-3-----3-----3----1--|


                          W

   S S S E.  S E.  E  E    E      S S S E.  S E.  Q    E
|------------------------------|--------------------------|
|------------------------------|--------------------------|
|------------------------------|--------------------------|
|--5-5-5-----5-----5--7--------|--5-5-5-----5-----5----3--|
|--5-5-5-----5-----5--7--------|--5-5-5-----5-----5----3--|
|--3-3-3-----3-----3--5--<>6~--|--3-3-3-----3-----3----1--|


                        W

   E  E  E  E  E  E  E    E      S S S E.  S E.  Q    E
-----------------------------|--------------------------|
-----------------------------|--------------------------|
-----------------------------|--------------------------|
--8--8--8--8--8--8--8--------|--5-5-5-----5-----5----3--|
--8--8--8--8--8--8--8--------|--5-5-5-----5-----5----3--|
--6--6--6--6--6--6--6--<>5~--|--3-3-3-----3-----3----1--|


                                                                    W
  S S S E.  S E.  E  E  E     E  E  E  E  E  E  E  E     H          H

|---------------------------|--------------------------|-----------------------|
|---------------------------|--------------------------|-----------------------|
|---------------------------|--------------------------|-----------------------|
|--5-5-5-----5-----5--7--8--|--8--8--8--8--8--8--8--8--|--7--------<>5~--------|
|--5-5-5-----5-----5--7--8--|--8--8--8--8--8--8--8--8--|--7--------------------|
|--3-3-3-----3-----3--5--6--|--6--6--6--6--6--6--6--6--|--5--------------------|


  W                   W                   W                   W

|-------------------|-------------------|-------------------|-------------------|
|-------------------|-------------------|-------------------|-------------------|
|--2----------------|--3----------------|--5----------------|--3----------------|
|--0----------------|--3----------------|--5----------------|--3----------------|
|--0----------------|--1----------------|--3----------------|--1----------------|
|-------------------|-------------------|-------------------|-------------------|


  W                   W                   W

|-------------------|-------------------|-------------------|
|-------------------|-------------------|-------------------|
|--2----------------|--3----------------|--5----------------|
|--0----------------|--3----------------|--5----------------|
|--0----------------|--1----------------|--3----------------|
|-------------------|-------------------|-------------------|


                 W
  H.             Q

|-----------------------|
|-----------------------|
|-----------------------|
|--5--------------------|
|--5--------------------|
|--3------------<>3~----|


   S                                   S S E.  S E.  Q    E
|------------------------------------------------------------|
|------------------------------------------------------------|
|------------------------------------------------------------|
|--5-----------------------------------5-5-----5-----5----3--|
|--5-----------------------------------5-5-----5-----5----3--|
|--3-----------------------------------3-3-----3-----3----1--|


                          W

   S S S E.  S E.  E  E    E      S S S E.  S E.  Q    E
|------------------------------|--------------------------|
|------------------------------|--------------------------|
|------------------------------|--------------------------|
|--5-5-5-----5-----5--7--------|--5-5-5-----5-----5----3--|
|--5-5-5-----5-----5--7--------|--5-5-5-----5-----5----3--|
|--3-3-3-----3-----3--5--<>6~--|--3-3-3-----3-----3----1--|


                         W

   E  E  E  E  E  E  E    E      S S S E.  S E.  Q    E
|-----------------------------|--------------------------|
|-----------------------------|--------------------------|
|-----------------------------|--------------------------|
|--8--8--8--8--8--8--8--------|--5-5-5-----5-----5----3--|
|--8--8--8--8--8--8--8--------|--5-5-5-----5-----5----3--|
|--6--6--6--6--6--6--6--<>5~--|--3-3-3-----3-----3----1--|



                                                                    W
  S S S E.  S E.  E  E  E     E  E  E  E  E  E  E  E     H          H

|---------------------------|--------------------------|-----------------------|
|---------------------------|--------------------------|-----------------------|
|---------------------------|--------------------------|-----------------------|
|--5-5-5-----5-----5--7--8--|--8--8--8--8--8--8--8--8--|--7--------<>5~--------|
|--5-5-5-----5-----5--7--8--|--8--8--8--8--8--8--8--8--|--7--------------------|
|--3-3-3-----3-----3--5--6--|--6--6--6--6--6--6--6--6--|--5--------------------|


  W                   W                   W                   W

|-------------------|-------------------|-------------------|-------------------|
|-------------------|-------------------|-------------------|-------------------|
|--2----------------|--3----------------|--5----------------|--3----------------|
|--0----------------|--3----------------|--5----------------|--3----------------|
|--0----------------|--1----------------|--3----------------|--1----------------|
|-------------------|-------------------|-------------------|-------------------|


  W                   W                   W

|-------------------|-------------------|-------------------|
|-------------------|-------------------|-------------------|
|--2----------------|--3----------------|--5----------------|
|--0----------------|--3----------------|--5----------------|
|--0----------------|--1----------------|--3----------------|
|-------------------|-------------------|-------------------|

 
                W
  H.             Q         H.             E   E      E   Q     Q     Q.

|-----------------------|-------------------------|--------------------------|
|-----------------------|--13~--------------------|--------------------------|
|-----------------------|-----------------13--12--|---L--10----12----13------|
|--5--------------------|-------------------------|--------------------------|
|--5--------------------|-------------------------|--------------------------|
|--3------------<>3~----|-------------------------|--------------------------|


    H.             E   E      E   Q      Q     Q.         H.             E   E
|-------------------------|---------------------------|-------------------------|
|--14~------------13--14--|---L--14b----14----13------|--13~--------------------|
|-------------------------|---------------------------|-----------------13--12--|
|-------------------------|---------------------------|-------------------------|
|-------------------------|---------------------------|-------------------------|
|-------------------------|---------------------------|-------------------------|


   E   Q     Q     Q.         S  S  S  S  S  S  S  S  S  S  S  S  S  S  S  S

|--------------------------|-----------11-------------------------------------|
|--------------------------|--14-13-14----14-13-11----13-11-13-14-13-11-------|
|---L--10----12----13------|-----------------------13-------------------13-12-|
|--------------------------|--------------------------------------------------|
|--------------------------|--------------------------------------------------|
|--------------------------|--------------------------------------------------|


                                    |--12-|  |--12-|

   S  S  S  S  S  S  S  S  Q.       T  T  T  T  T  T

|--------------------------------------------13-15-17-|
|-----------11----------------------13-15-17----------|
|--13-12-13----13-12-10-------------------------------|
|-----------------------13-10~------------------------|
|-----------------------------------------------------|
|-----------------------------------------------------|


|--17---------------------15-13---------------------------------------------------|
|-------------------------------17-15-13----------17-15-13------------------------|
|----------------------------------------15-14-12----------15-14-12----------15-1-|
|-------------------------------------------------------------------15-14-12------|
|---------------------------------------------------------------------------------|
|---------------------------------------------------------------------------------|


   PM PM PM PM PM PM PM PM PM PM PM PM PM PM PM PM PM PM PM PM PM PM PM PM
   T  T  T  T  T  T  T  T  T  T  T  T  T  T  T  T  T  T  T  T  T  T  T  T  Q

|--------------------------------------------------------------------------------|
|--------------------------------------------------------------------------------|
|--------------------------------------------------------------------------------|
|-----------------------------------------------------12-14-15-14-15-------14~---|
|--------------12-13-15-13-12----------------12-13-15----------------15-13-------|
|--13-12-13-15----------------15-13-12-13-15-------------------------------------|


   |---3---|

   E   E   E   H.

|------------------------------|
|------------------------------|
|--11--12--14--14b~------------|
|------------------------------|
|------------------------------|
|------------------------------|


   PM PM PM PM PM PM PM PM PM PM PM PM PM PM PM PM PM PM PM PM PM PM PM PM PM PM
   T  T  T  T  T  T  T  T  T  T  T  T  T  T  T  T  T  T  T  T  T  T  T  T  T  T

|--------------------------------------------------------------------------------|
|--------------------------------------------------------------------------------|
|--14-12-11----------------------------------11----------------------------------|
|-----------14-12-11----------------11-12-14----14-12-10----------------------11-|
|--------------------14-12-10-12-14----------------------14-12-10----10-12-14----|
|-----------------------------------------------------------------14-------------|


  S S S S S S S S S S S S S S S S    S S S S S S S S S S S S S S S S

|----------------------------------|----------------------------------|
|------6---5-6-----6---5-6-----5-6-|------8---6-8-----8---6-8-----6-8-|
|--7-7-----------7-----------7-----|--7-7-----------7-----------7-----|
|----------------------------------|----------------------------------|
|----------------------------------|----------------------------------|
|----------------------------------|----------------------------------|


   S S S S S S S S S S S S S S S S    S S S S S S S S S S S S S S E
|----------------------------------|------------------8---6---5------|
|------6---5-6-----6---5-6-----5-6-|------8---6-8-----------------8--|
|--7-7-----------7-----------7-----|--7-7-----------7----------------|
|----------------------------------|---------------------------------|
|----------------------------------|---------------------------------|
|----------------------------------|---------------------------------|


                  W

   H.             Q        E  E   S S  Q     S  S  S S E
|-----------------------|---------------------------------|
|-----------------------|---------------------------------|
|-----------------------|--7--7--10-9----------------7----|
|--5--------------------|-------------10----10-10-10---7--|
|--5--------------------|---------------------------------|
|--3------------<>3~----|---------------------------------|


   Q.     Q    E  S S  E     E  E   S S  Q     S  S  S S E
|-------------------------|---------------------------------|
|-------------------------|---------------------------------|
|--7------7----7--7-9-10--|--7--7--10-9----------------7----|
|-------------------------|-------------10----10-10-10---7--|
|-------------------------|---------------------------------|
|-------------------------|---------------------------------|


    Q.      Q     E   S S  E     E  E   S S  Q     S  S  S S E
|-----------------------------|---------------------------------|
|-----------------------8-10--|---------------------------------|
|--10------10----10--10-------|--7--7--10-9----------------7----|
|-----------------------------|-------------10----10-10-10---7--|
|-----------------------------|---------------------------------|
|-----------------------------|---------------------------------|


   Q.     Q    E  S S  E     E  E   S S  Q     S  S  S S E
|-------------------------|---------------------------------|
|-------------------------|---------------------------------|
|--7------7----7--7-9-10--|--7--7--10-9----------------7----|
|-------------------------|-------------10----10-10-10---7--|
|-------------------------|---------------------------------|
|-------------------------|---------------------------------|


   Q.      Q     E   S S  E      W                   W

|------------------------------|-------------------|-------------------|
|-----------------------8-10~--|--L----------------|--L----------------|
|--10------10----10--10--------|-------------------|-------------------|
|------------------------------|-------------------|-------------------|
|------------------------------|-------------------|-------------------|
|------------------------------|-------------------|-------------------|


Guitarra 2:
             W

E|-------|--------------------------------------------------|
B|-------|--------------------------------------------------|
G|-------|--2-----------------------------------------------|
D|-------|--0-----------------------------------------------|
A|-------|--0-----------------------------------------------|
E|-------|--------------------------------------------------|

                                                            

   W                   W                   H.           E    E
|-------------------|-------------------|------------------------|
|-------------------|-------------------|------------------------|
|--3----------------|--5----------------|--3------------L--------|
|--3----------------|--5----------------|--3------------L--------|
|--1----------------|--3----------------|--1------------L--<>1~--|
|-------------------|-------------------|------------------------|


Se possível afine a 6ª corda em D e toque solta
  W                                                  W

|--------------------------------------------------|-------------------|
|--------------------------------------------------|-------------------|
|--2-----------------------------------------------|--3----------------|
|--0-----------------------------------------------|--3----------------|
|--0-----------------------------------------------|--1----------------|
|--------------------------------------------------|-------------------|


                                        W
  W                   H.           E    E      W

|-------------------|------------------------|-------------------|
|-------------------|------------------------|-------------------|
|--5----------------|------------------------|-------------------|
|--5----------------|--5------------L--------|--0----------------|
|--3----------------|--5------------L--------|--0----------------|
|-------------------|--3------------L--<>3~--|-------------------|


  W                   W

|-------------------|-------------------|
|-------------------|-------------------|
|-------------------|-------------------|
|--L----------------|--L----------------|
|--L----------------|--L----------------|
|-------------------|-------------------|


   S                                   S S E.  S E.  Q    E
|------------------------------------------------------------|
|------------------------------------------------------------|
|------------------------------------------------------------|
|--5-----------------------------------5-5-----5-----5----3--|
|--5-----------------------------------5-5-----5-----5----3--|
|--3-----------------------------------3-3-----3-----3----1--|


  S S S E.  S E.  E  E  E     S S S E.  S E.  Q    E
|---------------------------|--------------------------|
|---------------------------|--------------------------|
|---------------------------|--------------------------|
|--5-5-5-----5-----5--7--8--|--5-5-5-----5-----5----3--|
|--5-5-5-----5-----5--7--8--|--5-5-5-----5-----5----3--|
|--3-3-3-----3-----3--5--6--|--3-3-3-----3-----3----1--|


   E  E  E  E  E  E  E  E     S S S E.  S E.  Q    E
|--------------------------|--------------------------|
|--------------------------|--------------------------|
|--------------------------|--------------------------|
|--8--8--8--8--8--8--8--7--|--5-5-5-----5-----5----3--|
|--8--8--8--8--8--8--8--7--|--5-5-5-----5-----5----3--|
|--6--6--6--6--6--6--6--5--|--3-3-3-----3-----3----1--|


  S S S E.  S E.  E  E  E     E  E  E  E  E  E  E  E     W

|---------------------------|--------------------------|-------------------|
|---------------------------|--------------------------|-------------------|
|---------------------------|--------------------------|-------------------|
|--5-5-5-----5-----5--7--8--|--8--8--8--8--8--8--8--8--|--7----------------|
|--5-5-5-----5-----5--7--8--|--8--8--8--8--8--8--8--8--|--7----------------|
|--3-3-3-----3-----3--5--6--|--6--6--6--6--6--6--6--6--|--5----------------|


  W                   W                   W                   W

|-------------------|-------------------|-------------------|-------------------|
|-------------------|-------------------|-------------------|-------------------|
|--2----------------|--3----------------|--5----------------|--3----------------|
|--0----------------|--3----------------|--5----------------|--3----------------|
|--0----------------|--1----------------|--3----------------|--1----------------|
|-------------------|-------------------|-------------------|-------------------|


  W                   W                   W

|-------------------|-------------------|-------------------|
|-------------------|-------------------|-------------------|
|--2----------------|--3----------------|--5----------------|
|--0----------------|--3----------------|--5----------------|
|--0----------------|--1----------------|--3----------------|
|-------------------|-------------------|-------------------|



                 W
  H.             Q

|-----------------------|
|-----------------------|
|-----------------------|
|--5--------------------|
|--5--------------------|
|--3------------<>3~----|


   S                                   S S E.  S E.  Q    E
|------------------------------------------------------------|
|------------------------------------------------------------|
|------------------------------------------------------------|
|--5-----------------------------------5-5-----5-----5----3--|
|--5-----------------------------------5-5-----5-----5----3--|
|--3-----------------------------------3-3-----3-----3----1--|


 
  S S S E.  S E.  E  E  E     S S S E.  S E.  Q    E
|---------------------------|--------------------------|
|---------------------------|--------------------------|
|---------------------------|--------------------------|
|--5-5-5-----5-----5--7--8--|--5-5-5-----5-----5----3--|
|--5-5-5-----5-----5--7--8--|--5-5-5-----5-----5----3--|
|--3-3-3-----3-----3--5--6--|--3-3-3-----3-----3----1--|


   E  E  E  E  E  E  E  E     S S S E.  S E.  Q    E
|--------------------------|--------------------------|
|--------------------------|--------------------------|
|--------------------------|--------------------------|
|--8--8--8--8--8--8--8--7--|--5-5-5-----5-----5----3--|
|--8--8--8--8--8--8--8--7--|--5-5-5-----5-----5----3--|
|--6--6--6--6--6--6--6--5--|--3-3-3-----3-----3----1--|


 S S S E.  S E.  E  E  E     E  E  E  E  E  E  E  E     W

|---------------------------|--------------------------|-------------------|
|---------------------------|--------------------------|-------------------|
|---------------------------|--------------------------|-------------------|
|--5-5-5-----5-----5--7--8--|--8--8--8--8--8--8--8--8--|--7----------------|
|--5-5-5-----5-----5--7--8--|--8--8--8--8--8--8--8--8--|--7----------------|
|--3-3-3-----3-----3--5--6--|--6--6--6--6--6--6--6--6--|--5----------------|


  W                   W                   W                   W

|-------------------|-------------------|-------------------|-------------------|
|-------------------|-------------------|-------------------|-------------------|
|--2----------------|--3----------------|--5----------------|--3----------------|
|--0----------------|--3----------------|--5----------------|--3----------------|
|--0----------------|--1----------------|--3----------------|--1----------------|
|-------------------|-------------------|-------------------|-------------------|


  W                   W                   W

|-------------------|-------------------|-------------------|
|-------------------|-------------------|-------------------|
|--2----------------|--3----------------|--5----------------|
|--0----------------|--3----------------|--5----------------|
|--0----------------|--1----------------|--3----------------|
|-------------------|-------------------|-------------------|


                 W           PM PM PM    PM PM    PM

   H.             Q        E  S  S  E  E  E  E  E  E
|-----------------------|-----------------------------|
|-----------------------|-----------------------------|
|-----------------------|-----------------------------|
|--5--------------------|--3-----------3--------3-----|
|--5--------------------|--3--3--3--3--3--3--3--3--3--|
|--3------------<>3~----|--1--1--1--1--1--1--1--1--1--|


     PM PM    PM PM    PM
  E  E  E  E  E  E  E  E     H        H           H        H

|--------------------------|--------------------|--------------------|
|--------------------------|--------------------|--------------------|
|--------------------------|--3--------5--------|--6--------8--------|
|--3--------3--------3-----|--3--------5--------|--6--------8--------|
|--3--3--3--3--3--3--3--3--|--1--------3--------|--4--------6--------|
|--1--1--1--1--1--1--1--1--|--------------------|--------------------|


     PM PM PM    PM PM    PM       PM PM    PM PM    PM
  E  S  S  E  E  E  E  E  E     E  E  E  E  E  E  E  E     H        H

|-----------------------------|--------------------------|--------------------|
|-----------------------------|--------------------------|--------------------|
|-----------------------------|--------------------------|--3--------5--------|
|--3-----------3--------3-----|--3--------3--------3-----|--3--------5--------|
|--3--3--3--3--3--3--3--3--3--|--3--3--3--3--3--3--3--3--|--1--------3--------|
|--1--1--1--1--1--1--1--1--1--|--1--1--1--1--1--1--1--1--|--------------------|


  H        H           S S S S S S S S S S S S S S S S

|--------------------|----------------------------------|
|--------------------|----------------------------------|
|--6--------8--------|----------------------------------|
|--6--------8--------|--7---5-7---7---7---5-7---7---5-7-|
|--4--------6--------|--5---3-5---5---5---3-5---5---3-5-|
|--------------------|----------------------------------|


  S S S S S S S S S S S S S S S  S    S S S S S S S S S S S S S S S S

|-----------------------------------|----------------------------------|
|-----------------------------------|----------------------------------|
|-----------------------------------|----------------------------------|
|--8---7-8---8---8---7-8---8---8-10-|--7---5-7---7---7---5-7---7---5-7-|
|--6---5-6---6---6---5-6---6---6--8-|--5---3-5---5---5---3-5---5---3-5-|
|-----------------------------------|----------------------------------|


                      PM PM           PM           PM
  W                   S  S  S S S S S S  S S S S S S  S S

|-------------------|--------------------------------------|
|-------------------|--------------------------------------|
|-------------------|--------------------------------------|
|--1----------------|--------3---2-3------3---2-3------2-3-|
|--1----------------|--5--5------------5------------5------|
|-------------------|--------------------------------------|


  PM PM           PM           PM        PM PM           PM           PM
  S  S  S S S S S S  S S S S S S  S S    S  S  S S S S S S  S S S S S S  S S

|--------------------------------------|--------------------------------------|
|--------------------------------------|--------------------------------------|
|--------------------------------------|--------------------------------------|
|--------5---3-5------5---3-5------3-5-|--------3---2-3------3---2-3------2-3-|
|--5--5------------5------------5------|--5--5------------5------------5------|
|--------------------------------------|--------------------------------------|


  PM PM           PM
  S  S  S S S S S S  S S S S S S E     W                   W

|------------------------------------|-------------------|-------------------|
|------------------------------------|-------------------|-------------------|
|---------------------5---3---2------|--2----------------|--L----------------|
|--------5---3-5------------------5--|--0----------------|--L----------------|
|--5--5------------5-----------------|--0----------------|--L----------------|
|------------------------------------|-------------------|-------------------|


  W                   W                   W                   W

|-------------------|-------------------|-------------------|-------------------|
|-------------------|-------------------|-------------------|-------------------|
|--L----------------|--L----------------|--L----------------|--L----------------|
|--L----------------|--L----------------|--L----------------|--L----------------|
|--L----------------|--L----------------|--L----------------|--L----------------|
|-------------------|-------------------|-------------------|-------------------|


  W                                       W                   W

|-------------------|-------------------|-------------------|-------------------|
|-------------------|-------------------|-------------------|-------------------|
|--L----------------|-------------------|--2----------------|--3----------------|
|--L----------------|-------------------|--0----------------|--3----------------|
|--L----------------|-------------------|--0----------------|--1----------------|
|-------------------|-------------------|-------------------|-------------------|


  W                   W                   W                   W

|-------------------|-------------------|-------------------|-------------------|
|-------------------|-------------------|-------------------|-------------------|
|--5----------------|--3----------------|--2----------------|--3----------------|
|--5----------------|--3----------------|--0----------------|--3----------------|
|--3----------------|--1----------------|--0----------------|--1----------------|
|-------------------|-------------------|-------------------|-------------------|


                                     W
  W                   H.             Q        W

|-------------------|-----------------------|-------------------|
|-------------------|-----------------------|-------------------|
|--5----------------|-----------------------|--2----------------|
|--5----------------|--5--------------------|--0----------------|
|--3----------------|--5--------------------|--0----------------|
|-------------------|--3------------<>3~----|-------------------|


                                                         W
  W                   W                   H.             Q

|-------------------|-------------------|-----------------------|
|-------------------|-------------------|-----------------------|
|--3----------------|--5----------------|--3--------------------|
|--3----------------|--5----------------|--3--------------------|
|--1----------------|--3----------------|--1------------<>1~----|
|-------------------|-------------------|-----------------------|


  W                   W                   W

|-------------------|-------------------|-------------------|
|-------------------|-------------------|-------------------|
|--2----------------|--3----------------|--5----------------|
|--0----------------|--3----------------|--5----------------|
|--0----------------|--1----------------|--3----------------|
|-------------------|-------------------|-------------------|


     PM PM    PM PM    PM PM    PM PM
  E  S  S  E  S  S  E  S  S  E  S  S     W                   W

|--------------------------------------|-------------------|-------------------|
|--------------------------------------|-------------------|-------------------|
|--------------------------------------|--2----------------|--L----------------|
|--5--------5--------5--------5--------|--0----------------|--L----------------|
|--5--5--5--5--5--5--5--5--5--5--5--5--|--0----------------|--L----------------|
|--3--3--3--3--3--3--3--3--3--3--3--3--|-------------------|-------------------|


  W                   W

|-------------------|-------------------|-------------------||
|-------------------|-------------------|-------------------||
|--L----------------|--L----------------|-------------------||
|--L----------------|--L----------------|-------------------||
|--L----------------|--L----------------|-------------------||
|-------------------|-------------------|-------------------||
Добавлено: 20.04.2016
Вам также может быть интересно:
Другие материалы по этой песне:
  • Аккорды и текст

Страница создана 11.10.2013
http://primanota.ru/primal-fear/no-smoke-without-fire-chords.htm
Привет, Гость.
Предлагаем пройти революционный курс по гитаре.
Подарок от PrimaNota.Ru, забирай!