PrimaNota.ru - самый крупный в мире бесплатный архив песенных текстов, аккордов, табулатур и нот


Pretty Maids - Eye Of The Storm - текст песни, таба, видео

Регистрация Запомнить меня
Войти через:  Facebook Google Twitter Vk Yandex Mail.ru

Pretty Maids - Eye Of The Storm - текст песни, таба, видео

Печатать
Просмотров: 188
Уроки эстрадного вокала в Санкт-Петербурге
                   Eye of the storm by Pretty Maids
                      From the album Future World

All guitars standard tuning
Listen to the record for timing
Posted and arranged by Pablo Celis
Mail to: pablocelis146@hotmail.com for comments


         acoustic guitar
E---||---------------0-----------------------0--------------------------
A---||------------0-----0-----------------0-----0-----------------6-----
D---||*--------2-----------2-----------5-----------5-----------7--------
G---||*-----2-----------------2-----5-----------------5-----7-----------
B---||---0-----------------------0-----------------------0--------------
E---||------------------------------------------------------------------


                                        repeat 4 times, then
E---0--------------------------------0----------------------------------
A------6-----------------0--------0-------------------------------------
D---------7-----------5--------4-----------------------------------4----
G------------7-----5--------3-----------------------------------4-------
B---------------0--------------------------------------------2----------
E-----------------------------------------------------------------------



E-----------------------------------------------------------------------
A-----------------------------------------------------------------------
D------------4-----------5-----------5-----------4-----------4----------
G---4-----4-----4-----5-----5-----5-----5-----4-----4-----4-----4-------
B------2-----------3-----------3-----------2-----------0----------------
E------------------------------------------------------------------3----



E-----------------------------------------------------------------------
A-----------------------------------------------------------------------
D------4-----------4-----------4-----------5-----------5-----------4----
G---4-----4-----4-----4-----4-----4-----5-----5-----5-----5-----4-------
B------------2-----------2-----------3-----------3-----------2----------
E-----------------------------------------------------------------------


                                              acoustic guitar
E---------------------------------------------------------0-------------
A------------------------------------------------------0-----0----------
D------------4-----------4-----------4--------------2-----------2-------
G---4-----4-----4-----4-----4-----4-----4--------2-----------------2----
B------0--------------------------------------0-------------------------
E------------------3-----------2----------------------------------------



E---------------0-----------------------0-------------------------------
A------------0-----0-----------------6-----6-----------------0----------
D---------5-----------5-----------7-----------7-----------5--------4----
G------5-----------------5-----7-----------------7-----5--------3-------
B---0-----------------------0-----------------------0-------------------
E-----------------------------------------------------------------------


          chorus         Repeat until end of chorus    then
E------0----------------------------------------------------------------
A---0-------------------------------------------------------------------
D------------------------9--7--7--7-----------------------5--2--5--5----
G------------------------9--7--7--7-----------------------5--2--5--5----
B------------------------7--5--9--5-----------------------3--0--3--7----
E-----------------------------------------------------------------------


    Interlude goes in:                              Guitar solo
E-----------------------------------------------------------------------
A-----------------------------------------------------------------------
D------------------5--2-------------------------------------------------
G------------------5--2--------------------------------------/7---------
B------------------3--0------------------------------/7--5--7-----------
E-----------------------------------------------------------------------



E------------5--7--8--7--5------------/12--10h12p10--8h10p8--7h8p7------
A---------5-----------------5-------------------------------------------
D------7-----------------------7----------------------------------------
G-----------------------------------------------------------------------
B-----------------------------------------------------------------------
E-----------------------------------------------------------------------


                                       hold bend
E---\5---------------------------------15--14---------------------------
A-------8-----------13--15--15^-------------------12--12/13--17--19-----
D----------7---/14------------------------------------------------------
G-----------------------------------------------------------------------
B-----------------------------------------------------------------------
E-----------------------------------------------------------------------



E---------------------------------------------------------18^--|--------
A---20--19--17--15--17--15--14--10-----12--12/13--17--19-------|--------
D--------------------------------------------------------------|--------
G--------------------------------------------------------------|--------
B--------------------------------------------------------------|--------
E--------------------------------------------------------------|--------




========================================================================
==                       TABLATURE EXPLANATION                        ==
========================================================================

----------                ----------                ----t---
----5h8--- Hammeron       ----(8)--- Ghost          ----6--- Tap
----------                ---------- Note           --------
----5p8--- Pulloff        ----------                --------

----------                ----------                -----p--
----5/8--- Slide Up       -----x---- Dead           -----7-- Pop
----------                ---------- Note           --s-----
----5\8--- Slide Down     ----------                --5----- Slap

----------                ||------|| Repeat         --------
----5~~~-- Vibrato        ||*----*||                ---5^--- Bend
----------                ||*----*||                --------
----------                ||------||                --------

----------                ----------                --------
-4:------- Time           ----------                --------
-4:------- Signature      ----------                --------
----------                ----------                --------

Rhythm:
  w = whole note            W = dotted whole
  h = half note             H = dotted half
  q = quarter note          Q = dotted quarter
  e = eighth note           E = dotted eighth
  s = sixteenth note        S = dotted sixteenth
  t = 32nd note             T = dotted 32nd
  x = 64th note             X = dotted 64th
  ^ = triplet
     
Добавлено: 02.06.2013
Другие материалы по этой песне:
  • Аккорды и текст

Страница создана 28.05.2012
http://primanota.ru/pretty-maids/eye-of-the-storm-chords.htm
Привет, Гость.
Предлагаем пройти революционный курс по гитаре.
Подарок от PrimaNota.Ru, забирай!