PrimaNota.ru - самый крупный в мире бесплатный архив песенных текстов, аккордов, табулатур и нот


Poets Of The Fall - The Ballad Of Jeremiah Peacekeeper - текст песни, таба, видео

Регистрация Запомнить меня
Войти через:  Facebook Google Twitter Vk Yandex Mail.ru

Poets Of The Fall - The Ballad Of Jeremiah Peacekeeper - текст песни, таба, видео

Печатать
Просмотров: 1647
Уроки эстрадного вокала в Санкт-Петербурге
Авторы: Poets of the Fall

-------------------------------------------------------------------------
THE BALLAD OF JEREMIAH PEACEKEEPER – Poets of the Fall
-------------------------------------------------------------------------
Tabbed by: Kengus

Standard tuning

The chords above the tabs refer to the picking.

INTRO
   Dm                                                              Dmbb5
e|-----5-----5-----5-----5-----5-------5-----5-----5-----5-----5-------3-|
B|---6-----6-----6-----6-----6-------6-----6-----6-----6-----6-------6---|
G|-7-----7-----7-----7-----7-----7-7-----7-----7-----7-----7-----7-7-----|
D|-----------------------------------------------------------------------|
A|-----------------------------------------------------------------------|
E|-----------------------------------------------------------------------|
                             C#dim
e|-----3-----3-----3-----3-------3-----3-----3--|
B|---6-----6-----6-----6-------5-----5-----5----|
G|-7-----7-----7-----7-----7-6-----6-----6------|
D|----------------------------------------------|
A|----------------------------------------------|
E|----------------------------------------------|

VERSE I (repeat intro pattern twice)

PRE-CHORUS
   Dmbb5            A#6	         Em7/D            C#dim
e|-----3-----3----------3-----3----------3-----3----------3-----3------|
B|---6-----6-----6----3-----3-----3----5-----5-----5----5-----5-----5--|
G|-7-----7-----7----3-----3-----3----7-----7-----7----6-----6-----6----|
D|---------------------------------------------------------------------|
A|---------------------------------------------------------------------|
E|---------------------------------------------------------------------|
   Dmbb5            A#6              Em7/D            C#dim
e|-----3-----3----------3-----3----------3-----3----------3-----3------|
B|---6-----6-----6----3-----3-----3----5-----5-----5----5-----5-----5--|
G|-7-----7-----7----3-----3-----3----7-----7-----7----6-----6-----6----|
D|---------------------------------------------------------------------|
A|---------------------------------------------------------------------|
E|---------------------------------------------------------------------|
   Dmbb5                             Gm6/A#              Dm
e|-----3-----3----------3-----3----------3-----3-----3-------5-----5--|
B|---6-----6-----6----6-----6-----6----5-----5-----5-------6-----6----|
G|-7-----7-----7----7-----7-----7----3-----3-----3-------7-----7------|
D|--------------------------------------------------------------------|
A|--------------------------------------------------------------------|
E|--------------------------------------------------------------------|

e|-----5-----5-----5----|
B|---6-----6-----6------|
G|-7-----7-----7-----7--|
D|----------------------|
A|----------------------|
E|----------------------|

CHORUS
   A#6                               C
e|-----3-----3-----3-----3-----3---------3-----3-----3-----3-----3----|
B|---3-----3-----3-----3-----3---------5-----5-----5-----5-----5------|
G|-3-----3-----3-----3-----3-----3---5-----5-----5-----5-----5-----5--|
D|--------------------------------------------------------------------|
A|--------------------------------------------------------------------|
E|--------------------------------------------------------------------|
   Dm                                G/B
e|-----5-----5-----5-----5-----5---------3-----3-----3-----3-----3----|
B|---6-----6-----6-----6-----6---------3-----3-----3-----3-----3------|
G|-7-----7-----7-----7-----7-----7---4-----4-----4-----4-----4-----4--|
D|--------------------------------------------------------------------|
A|--------------------------------------------------------------------|
E|--------------------------------------------------------------------|
   A#6                               A7
e|-----3-----3-----3-----3-----3---------3-----3-----3-----3-----3----|
B|---3-----3-----3-----3-----3---------2-----2-----2-----2-----2------|
G|-3-----3-----3-----3-----3-----3---2-----2-----2-----2-----2-----2--|
D|--------------------------------------------------------------------|
A|--------------------------------------------------------------------|
E|--------------------------------------------------------------------|

INTERLUDE (repeat intro pattern)

VERSE II (repeat verse I pattern)

PRE-CHORUS (slightly longer than before)
   Dmbb5            A#6              Em7/D            C#dim
e|-----3-----3----------3-----3----------3-----3----------3-----3------|
B|---6-----6-----6----3-----3-----3----5-----5-----5----5-----5-----5--|
G|-7-----7-----7----3-----3-----3----7-----7-----7----6-----6-----6----|
D|---------------------------------------------------------------------|
A|---------------------------------------------------------------------|
E|---------------------------------------------------------------------|
   Dmbb5            A#6              Em7/D            C#dim
e|-----3-----3----------3-----3----------3-----3----------3-----3------|
B|---6-----6-----6----3-----3-----3----5-----5-----5----5-----5-----5--|
G|-7-----7-----7----3-----3-----3----7-----7-----7----6-----6-----6----|
D|---------------------------------------------------------------------|
A|---------------------------------------------------------------------|
E|---------------------------------------------------------------------|
   Dmbb5                             Gm6/A#              Dm
e|-----3-----3----------3-----3----------3-----3-----3-------5-----5--|
B|---6-----6-----6----6-----6-----6----5-----5-----5-------6-----6----|
G|-7-----7-----7----7-----7-----7----3-----3-----3-------7-----7------|
D|--------------------------------------------------------------------|
A|--------------------------------------------------------------------|
E|--------------------------------------------------------------------|

e|-----5-----5-----5--------5-----5-----5-----5-----5---|
B|---6-----6-----6--------6-----6-----6-----6-----6-----|
G|-7-----7-----7-----7--7-----7-----7-----7-----7-----7-|
D|------------------------------------------------------|
A|------------------------------------------------------|
E|------------------------------------------------------|

CHORUS
   A#6                               C
e|-----3-----3-----3----3-----3----------3-----3-----3-----3-----3----|
B|---3-----3-----3----3-----3----------5-----5-----5-----5-----5------|
G|-3-----3-----3----3-----3-----3----5-----5-----5-----5-----5-----5--|
D|--------------------------------------------------------------------|
A|--------------------------------------------------------------------|
E|--------------------------------------------------------------------|
   Dm                                G/B
e|-----5-----5-----5-----5-----5---------3-----3-----3----3-----3-----|
B|---6-----6-----6-----6-----6---------3-----3-----3----3-----3-------|
G|-7-----7-----7-----7-----7-----7---4-----4-----4----4-----4-----4---|
D|--------------------------------------------------------------------|
A|--------------------------------------------------------------------|
E|---------------------------------------------------------------------|
   A#6                               Em7              A7
e|-----3-----3-----3-----3-----3---------3-----3----------3-----3------|
B|---3-----3-----3-----3-----3---------3-----3-----3----2-----2-----2--|
G|-3-----3-----3-----3-----3-----3--------------------2-----2-----2----|
D|-----------------------------------2-----2-----2---------------------|
A|---------------------------------------------------------------------|
E|---------------------------------------------------------------------|
   Dm
e|-----5-----5-----5-----5-----5----|
B|---6-----6-----6-----6-----6------|
G|-7-----7-----7-----7-----7-----7--|
D|----------------------------------|
A|----------------------------------|
E|----------------------------------|

CHORUS
   A#6                               C
e|-----3-----3-----3-----3-----3---------3-----3-----3-----3-----3----|
B|---3-----3-----3-----3-----3---------5-----5-----5-----5-----5------|
G|-3-----3-----3-----3-----3-----3---5-----5-----5-----5-----5-----5--|
D|--------------------------------------------------------------------|
A|--------------------------------------------------------------------|
E|--------------------------------------------------------------------|
   Dm                                G/B
e|-----5-----5-----5-----5-----5---------3-----3-----3-----3-----3----|
B|---6-----6-----6-----6-----6---------3-----3-----3-----3-----3------|
G|-7-----7-----7-----7-----7-----7---4-----4-----4-----4-----4-----4--|
D|--------------------------------------------------------------------|
A|--------------------------------------------------------------------|
E|--------------------------------------------------------------------|
   A#6                               A7
e|-----3-----3-----3-----3-----3---------3-----3-----3-----3-----3----|
B|---3-----3-----3-----3-----3---------2-----2-----2-----2-----2------|
G|-3-----3-----3-----3-----3-----3---2-----2-----2-----2-----2-----2--|
D|--------------------------------------------------------------------|
A|--------------------------------------------------------------------|
E|--------------------------------------------------------------------|

INTERLUDE/SOLO (strum the chords)
Dm  Dm/C  Bb  Asus4  A
Dm  Dm/C  Bb  Asus4  A
Gm  Gm7/F  Gm6/E  D#maj7
Gm  Gm7/F  Gm6/E  D#maj7  Dsus4  D

CHORUS
   C6                                D
e|-----5-----5-----5----5-----5----------5-----5-----5-----5-----5----|
B|---5-----5-----5----5-----5----------7-----7-----7-----7-----7------|
G|-5-----5-----5----5-----5-----5----7-----7-----7-----7-----7-----7--|
D|--------------------------------------------------------------------|
A|--------------------------------------------------------------------|
E|--------------------------------------------------------------------|
   Em                                A/C#
e|-----7-----7-----7-----7-----7---------5-----5-----5----5-----5-----|
B|---8-----8-----8-----8-----8---------5-----5-----5----5-----5-------|
G|-9-----9-----9-----9-----9-----9---6-----6-----6----6-----6-----6---|
D|--------------------------------------------------------------------|
A|--------------------------------------------------------------------|
E|--------------------------------------------------------------------|
   C6                                F#m7             B7
e|-----5-----5-----5-----5-----5---------5-----5----------5-----5------|
B|---5-----5-----5-----5-----5---------5-----5-----5----4-----4-----4--|
G|-5-----5-----5-----5-----5-----5--------------------4-----4-----4----|
D|-----------------------------------4-----4-----4---------------------|
A|---------------------------------------------------------------------|
E|---------------------------------------------------------------------|
   Em                                A/C#
e|-----7-----7-----7-----7-----7---------5-----5-----5-----5-----5-----|
B|---8-----8-----8-----8-----8---------5-----5-----5-----5-----5-------|
G|-9-----9-----9-----9-----9-----9---6-----6-----6-----6-----6-----6---|
D|---------------------------------------------------------------------|
A|---------------------------------------------------------------------|
E|---------------------------------------------------------------------|
   C6                                B7
e|-----5-----5-----5-----5-----5---------5-----5-----5--|
B|---5-----5-----5-----5-----5---------4-----4-----4----|
G|-5-----5-----5-----5-----5-----5---4-----4-----4------|
D|------------------------------------------------------|
A|------------------------------------------------------|
E|------------------------------------------------------|

OUTRO
   Em
e|-----7-----7-----7-----7-----7--------7-----7-----7-----7-----7------|
B|---8-----8-----8-----8-----8--------8-----8-----8-----8-----8--------|
G|-9-----9-----9-----9-----9-----9--9-----9-----9-----9-----9-----9----|
D|---------------------------------------------------------------------|
A|---------------------------------------------------------------------|
E|---------------------------------------------------------------------|

e|-----7-----7-----7-----7-----7-------|
B|---8-----8-----8-----8-----8---------|
G|-9-----9-----9-----9-----9-----9--9--|
D|-------------------------------------|
A|-------------------------------------|
E|-------------------------------------|

***

LYRICS:

INTRO

VERSE I
He stares out the window, blank as a canvas
Made up in the sunlight and swirling smoke and ash
He waits for a breath now, taking his time
He sees an eternity in a blink of an eye

PRE-CHORUS
And for him, this life is made of time and choices
And endless blend of vistas painted bright with memories
The here and now will bow to him to only serve one purpose
To keep your peace

CHORUS
He takes on the world all in a stride, and your wounds will be his scars
So won't you remember when the night comes
He will need your open arms
For to be invincible, he needs your love

INTERLUDE

VERSE II
He stands in the doorway, quiet like yesterday
With forgotten thoughts become a mystery and nightmares locked away
He looks like a gunman, but his view is much too wide
For such a solution, so he fights without a six gun on his side

PRE-CHORUS
And all the while his stars and moon shine brightly
Outside the desert wails a curse of rage and jealousy
And yet, tomorrow comes along and shapes to serve his purpose
To keep your peace

CHORUS
He takes on the world all in a stride, and your wounds will be his scars
So won't you remember when the night comes
He will need your open arms
For to be invincible, he needs your love

CHORUS
He takes on the world all in a stride, and your wounds will be his scars
So won't you remember when the night comes
He will need your open arms
For to be invincible, he needs your love

INTERLUDE/SOLO

CHORUS
He takes on the world all in a stride, and your wounds will be his scars
So won't you remember when the night comes
He will need your open arms
For to be invincible, he needs your love
For to be invincible, he needs your love

OUTRO
Добавлено: 07.10.2013
Другие материалы по этой песне:
  • Аккорды и текст

Страница создана 07.10.2013
http://primanota.ru/poets-of-the-fall/the-ballad-of-jeremiah-peacekeeper-chords.htm
Привет, Гость.
Предлагаем пройти революционный курс по гитаре.
Подарок от PrimaNota.Ru, забирай!