PrimaNota.ru - самый крупный в мире бесплатный архив песенных текстов, аккордов, табулатур и нот


Poets Of The Fall - Sorry Go Round - текст песни, бас-таба, видео

Регистрация Запомнить меня
Войти через:  Facebook Google Twitter Vk Yandex Mail.ru

Poets Of The Fall - Sorry Go Round - текст песни, бас-таба, видео

Печатать
Просмотров: 236
Авторы: Poets of the Fall

-----------------------------------------------------------------
SORRY GO ROUND - Poets of the Fall
-----------------------------------------------------------------

Tabbed By : Fabba
e-mail: andre.oszwald@gmx.at

Tuning: Drop D (DADG)

Intro and verse:

G||--------------------------|--------------------------|
D||--------------------------|--------------------------|
A||--0--2--2--0--2--2--0-----|-----------------------0--|
D||-----------------------4--|--0--2--2--0--2--2--4-----|

G||--------------------------|--------------------------|
D||--------------------------|--------------------------|
A||--0--2--2--0--2--2--0-----|-----------------------0--|
D||-----------------------4--|--0--2--2--0--2--2--4-----|

G||--------------------------|--------------------------|
D||--------------------------|--------------------------|
A||--0--2--2--0--2--2--0-----|-----------------------0--|
D||-----------------------4--|--0--2--2--0--2--2--4-----|
   ("at his house, in the bathroom, on holiday, it doesn't matter!")
G||--------------------------|----------------------------------|
D||--------------------------|----------------------------------|
A||--------------------------|--10--10--10--10--10--12--12--12--|
D||--5--5--5--5--5--5--5--5--|----------------------------------|

Pre - Chorus:
     ("All the things you see - make arrogance")
G||--------------------------|--------------------------|
D||--------------------------|--------------------------|
A||--2--2--2--2--2--2--2-----|--------------------5--4--|
D||-----------------------4--|--2--2--2--2--2--2--------|

G||--------------------------|--------------------------|
D||--------------------------|--------------------------|
A||--2--2--2--2--2--2--2--0--|--------------------5--4--|
D||--------------------------|--2--2--2--2--2--2--------|

G||--------------------------|--------------------------|
D||--------------------------|--------------------------|
A||--2--2--0--2--2--2--2--5--|--------------------4--2--|
D||--------------------------|--2--2--2--0--2--2--------|

G||--------------------------|--------------------------|
D||--------------------------|--2--2--2--2--2--2--2--2--|
A||--2--2--2--0--2--2--4--5--|--------------------------|
D||--------------------------|--------------------------|

Chorus:
  ("Merry go round and around and around")
G||--------------------------|--------------------------|
D||--------------------------|--------------------------|
A||--2--2--2--2--0--0--0--0--|--------------------5--4--|
D||--------------------------|--2--2--2--2--2--2--------|

G||--------------------------|--------------------------|
D||--------------------------|--------------------------|
A||--2--2--2--2--0--0--0--0--|--------------------------|
D||--------------------------|--2--2--2--2--2--2--2--2--|

G||--------------------------|--------------------------|
D||--------------------------|--------------------------|
A||--2--2--2--2--0--0--0--0--|--------------------------|
D||--------------------------|--5--5--5--5--4--4--4--4--|

G||--------------------------|--------------------------|
D||--------------------------|--------------------------|
A||--2--2--2--2--0--0--0--0--|--------------------------|
D||--------------------------|--2--2--2--2--2--4--4--4--|

That's it, folks, I don't think the bass plays anything during the bridge :-) Have fun!

André
Добавлено: 22.05.2012
Другие материалы по этой песне:
  • Аккорды и текст

Страница создана 22.05.2012
http://primanota.ru/poets-of-the-fall/sorry-go-round-chords.htm
Привет, Гость.
Предлагаем пройти революционный курс по гитаре.
Подарок от PrimaNota.Ru, забирай!