PrimaNota.ru - самый крупный в мире бесплатный архив песенных текстов, аккордов, табулатур и нот


Poets Of The Fall - Rewind - текст песни, таба, видео

Регистрация Запомнить меня
Войти через:  Facebook Google Twitter Vk Yandex Mail.ru

Poets Of The Fall - Rewind - текст песни, таба, видео

Печатать
Просмотров: 656
Авторы: Poets of the Fall

-------------------------------------------------------------------------
REWIND – Poets of the Fall
-------------------------------------------------------------------------
Tabbed by: Kengus

This is just a rough sketch of a tab. I have no idea how the song should
be played, but this kinda works. Kinda.

Standard tuning
Capo on second fret!

INTRO (repeat x2)
   Dm   C   G/B  Bb6 C  Dm     C   G/B  Bb6 C
e|--------------------------5----5--3----------| The same pattern is
B|-5h6--5----3----3--5--5h6----5----3-3--3--5--| used in the verses too,
G|------0-0--0-0--0--0---------0------0--0--0--| with only minor variation
D|-7--------------------7----------------------|
A|-5----3----2----1--3--5------3----2-2--1--3--|
E|---------------------------------------------|

VERSE1 (similar to intro)
Dm           C           G/B     Bb6  C
   What do we have but illusions
      Dm        C   G/B    Bb6        C      Dm
Where one man's absolute is another's choice
      C         G/B    Bb6  C
Giving in to confusion
     Dm       C         G/B            Bb6     C
Till love and hate both tempt with the same voice
Dm  C         G/B          Bb6     C     Dm  C
      Won't you take me to a higher ground
        G/B       Bb6         C    Dm
I need to see again the way I'm bound
    C            G/B    Bb6    C  Dm     C            G/B        Bb6
And choose the uneasy redemption, run by fear and the flaws of attraction

CHORUS
   Dm           Dm7/C        Bbadd9       Am11         Dm           Dm7/C
e|-------1------------1--------------------------------------1-----------|
B|-----3---3--------3---3----------3------------3----------3---3--------3|
G|---2-------2----2-------2------5---5--------5---5------2-------2----2--|
D|-0---------------------------3-------3----5-------5--0-----------------|
A|--------------3------------1------------0-------------------------3----|
E|-----------------------------------------------------------------------|
          Gsus4 G  BbM7 C  Dm           Dm7/C        Dm6/B        G7sus4
e|-1-----------------------------1------------1------------1----------1--|
B|---3--------3-3-3--3--1------3---3--------3---3--------3---3--------1--|
G|-----2------5-4-4--2--0----2-------2----2-------2----2-------2----0----|
D|----------5-5-5-5--3--2--0---------------------------------------------|
A|-------------------1--3---------------3------------2-------------------|
E|--------3-------------------------------------------------------3------|
   Am11   BbM7    E7sus4
e|-----------------0-----|
B|-----3--------3--3-----|
G|-----5------3-2--2-----|
D|---5------3------0-----|
A|-0------1--------2-----|
E|-----------------0-----|

CHORUS
Dm                Dm7/C               Bbadd9          Am11           Dm
    Rewind, I wanna go it again, light up the dark, halo on the side
                         Dm7/C
So I'll know it will not leave me wanting
  Gsus4  G      BbM7   C        Dm
I see my heart, waving me bye bye
               Dm7/C               Dm6/B        G7sus4  Am11     BbM7  E7sus4
Rewind, I wanna go it again, light up the dark, halo    on the side

INTERLUDE (repeat intro)

VERSE2 (like verse1)
If life itself has a meaning
Is it anything more than what we choose to call it
Sweet words make appealing
But they only serve to mask the smell of what you buried
Is it worth your while to spend on a lie
Even though you cannot see eye to eye
And give in to the rumour seduction
Run by fear and all the good intentions

CHORUS
Rewind, I wanna go it again, light up the dark, halo on the side
So I'll know it will not leave me wanting
Like my love, kissing me good bye                             Gm...
Rewind, I wanna go it again, light up the dark, halo on the side

BRIDGE
...Bb  C  Dm  Am7
   Gm      Bb     C        Dm    Am7
If this is how we think we make amends
     Gm       Bb    C         Dm    Am7
Then we're in for a race that never ends
    Gm       Bb    C           Dm      Gm     Am7    C        Dm
And where is it we think we'll go, and what is it we think we know
      Gm    Bb       C      Dm        Gm      Bb  C
It'll never change until we change ourselves, oooooh

CHORUS
Rewind, I wanna go it again, light up the dark, halo on the side
So I'll know it will not leave me wanting
I see my heart, waving me bye bye
Rewind, I wanna go it again, light up the dark, halo on the side
So I'll know it will not leave me wanting
Like my love, kissing me good bye
Rewind, I wanna go it again, light up the dark, halo on the side.

OUTRO (almost like intro)

=========================================================================
Comment, rate, appreciate!
Добавлено: 04.03.2012
Другие материалы по этой песне:

Страница создана 04.03.2012
http://primanota.ru/poets-of-the-fall/rewind-chords.htm
Привет, Гость.
Предлагаем пройти революционный курс по гитаре.
Подарок от PrimaNota.Ru, забирай!