PrimaNota.ru - самый крупный в мире бесплатный архив песенных текстов, аккордов, табулатур и нот


Poets Of The Fall - Nothing Stays The Same - таба, видео

Регистрация Запомнить меня
Войти через:  Facebook Google Twitter Vk Yandex Mail.ru

Poets Of The Fall - Nothing Stays The Same - таба, видео

Печатать
Просмотров: 244
-------------------------------------------------------------------------------
        Nothing stays the same(intro) - Poets Of The Fall
-------------------------------------------------------------------------------

Tuning:Standard

e|-----------------------------------------0-------------0h1-------|
B|---------0h1-----------1---------------1---1---------3-----3-----|
G|-------2-----2-------0-----0---------2-------2-----2---------2---| x4
D|-----2---------2---2---------2---3-------------3-0---------------|
A|-0---------------3-----------------------------------------------|
E|-----------------------------------------------------------------|

************************************

| /   slide up
| \   slide down
| h   hammer-on
| p   pull-off
| ~   vibrato
| +   harmonic
| x   Mute note
| b   Bend
| pb  Pre-bend
| br  Bend release
| pbr Pre-bend release
| brb Bend release bend

************************************
Добавлено: 28.09.2015
Другие материалы по этой песне:
  • Аккорды и текст

Страница создана 28.09.2015
http://primanota.ru/poets-of-the-fall/nothing-stays-same-chords.htm
Привет, Гость.
Предлагаем пройти революционный курс по гитаре.
Подарок от PrimaNota.Ru, забирай!