PrimaNota.ru - самый крупный в мире бесплатный архив песенных текстов, аккордов, табулатур и нот


Pink Floyd - Surfacing - таба, видео

Регистрация Запомнить меня
Войти через:  Facebook Google Twitter Vk Yandex Mail.ru

Pink Floyd - Surfacing - таба, видео

Печатать
Просмотров: 124
Pink Floyd - Surfacing
Slide Solo - standard tuning

|----------------------3-5s7-5-7-8-10-12-12s15-10s12-5s7-3-|
|-3s7~~~--7s8s5~~--3s5-------------------------------------|
|----------------------------------------------------------|
|----------------------------------------------------------|
|----------------------------------------------------------|
|----------------------------------------------------------|

|-3s15-12s15-17-19-22-22-19s20-17s19-15----------------|
|----------------------------------------5-8s10-8-5~~~-|
|------------------------------------------------------|
|------------------------------------------------------|
|------------------------------------------------------|
|------------------------------------------------------|

|--------------------------3s5~-5s7s8-10-12-15-17-0-3s5-3-0---|
|-3s5-5~s7s3-5-7s8-10s12--------------------------------------|
|-------------------------------------------------------------|
|-------------------------------------------------------------|
|-------------------------------------------------------------|
|-------------------------------------------------------------|

|-3s12-12-12-12s15-8s10-10s12-7s8-7s8s7-5-5s7s5-3-0~~~---|
|--------------------------------------------------------|
|--------------------------------------------------------|
|--------------------------------------------------------|
|--------------------------------------------------------|
|--------------------------------------------------------|

|-3s15-12s15-17-19-22-22-19s20-17s19-15-----------------------------------|
|---------------------------------------5-8s10-8-5~~~-5s17-17-17-17-15s17-|
|-------------------------------------------------------------------------|
|-------------------------------------------------------------------------|
|-------------------------------------------------------------------------|
|-------------------------------------------------------------------------|

|--------|
|-3s12~--|
|-3s12~--|
|--------|
|--------|
|--------|

Добавлено: 01.07.2015
Другие материалы по этой песне:
  • Аккорды и текст

Страница создана 01.07.2015
http://primanota.ru/pink-floyd/surfacing-chords.htm
Привет, Гость.
Предлагаем пройти революционный курс по гитаре.
Подарок от PrimaNota.Ru, забирай!