PrimaNota.ru - самый крупный в мире бесплатный архив песенных текстов, аккордов, табулатур и нот


Pink Floyd - Eyes To Pearls - таба, видео

Регистрация Запомнить меня
Войти через:  Facebook Google Twitter Vk Yandex Mail.ru

Pink Floyd - Eyes To Pearls - таба, видео

Печатать
Просмотров: 151
Авторы музыки: David Gilmour

EYES TO PEARLS

As recorded by Pink Floyd
(From the 2014 Album THE ENDLESS RIVER)


Music by David Gilmour
Transcribed by Slowhand


Gtr I (E A D G B E) - 'David Gilmour - Electric Guitar w/ clean tone & reverb'
Gtr II (E A D G B E) - 'David Gilmour - Electric Guitar w/ clean tone & reverb'
Gtr III (E A D G B E) - 'David Gilmour - Electric Guitar w/ clean tone & reverb'


  Q=127
  Em
 4/4
  Gtr I
  E Q   E +H        E Q   E +H        E Q   E +H        E Q   E +H
|-----------------|-----------------|-----------------|-----------------|
|-----------------|-----------------|-----------------|-----------------|
|-----------------|-----------------|-----------------|-----------------|
|---2---5-(5)-----|---4-------------|---2---5-(5)-----|---4-------------|
|-----------------|-------2-(2)-----|-----------------|-------2-(2)-----|
|-0---0----0---0--|-0---0----0---0--|-0---0----0---0--|-0---0----0---0--|
  Q   Q    Q   Q    Q   Q    Q   Q    Q   Q    Q   Q    Q   Q    Q   Q


  E Q   E +H        E Q   E +H        E Q   E +H        E Q   E +H
|-----------------|-----------------|-----------------|------------------|
|-----------------|-----------------|-----------------|------------------|
|-----------------|-----------------|-----------------|------------------|
|---2---5-(5)-----|---4-------------|---2---5-(5)-----|---4--------------|
|-----------------|-------2-(2)-----|-----------------|-------2-(2)------|
|-0---0----0---0--|-0---0----0---0--|-0---0----0---0--|-0---0----0----0--|
| Q   Q    Q   Q    Q   Q    Q   Q    Q   Q    Q   Q    Q   Q    Q    Q
|
| Gtr II
| W                 W                 W                 H        Q    Q
|-----------------|-----------------|-----------------|--------------12--|
|-----------------|-----------------|-----------------|------------------|
|-----------------|-----------------|-----------------|------------------|
|-----------------|-----------------|-----------------|------------------|
|-----------------|-----------------|-----------------|------------------|
|-----------------|-----------------|-----------------|------------------|


  Am
    E  Q   E +H        E Q   E +H        E Q   E +H        E Q    E  +H
|--------------------|-----------------|-----------------|-------------------|
|--------------------|-----------------|-----------------|-------------------|
|------2---5-(5)-----|---4---7-(7)-----|---5---9-(9)-----|---7---12-(12)-----|
|--------------------|-----------------|-----------------|-------------------|
|---0----0----0---0--|-0---0----0---0--|-0---0----0---0--|-0---0------0---0--|
|--------------------|-----------------|-----------------|-------------------|
|   Q    Q    Q   Q    Q   Q    Q   Q    Q   Q    Q   Q    Q   Q      Q   Q
|
|  +W                  W                 W                 W
|-(12)---------------|-----------------|-----------------|-------------------|
|--------------------|-----------------|-----------------|-------------------|
|--------------------|-----------------|-----------------|-------------------|
|--------------------|-----------------|-----------------|-------------------|
|--------------------|-----------------|-----------------|-------------------|
|--------------------|-----------------|-----------------|-------------------|


  Em
  E Q   E +H        E Q   E +H        E Q   E +H        E Q   E +H
|-----------------|-----------------|-----------------|-------------------||
|-----------------|-----------------|-----------------|-------------------||
|-----------------|-----------------|-----------------|-------------------||
|---2---5-(5)-----|---4-------------|---2---5-(5)-----|---4---------------||
|-----------------|-------5-(5)-----|-----------------|-------5-(5)-------||
|-0---0----0---0--|-0---0----0---0--|-0---0----0---0--|-0---0----0----0---||
| Q   Q    Q   Q    Q   Q    Q   Q    Q   Q    Q   Q    Q   Q    Q    Q
|
| W                 W                 W                 H        Q    Q
|-----------------|-----------------|-----------------|--------------12---||
|-----------------|-----------------|-----------------|-------------------||
|-----------------|-----------------|-----------------|-------------------||
|-----------------|-----------------|-----------------|-------------------||
|-----------------|-----------------|-----------------|-------------------||
|-----------------|-----------------|-----------------|-------------------||
|
| Gtr III
| W                 W                 W                 H        Q    E E
|-----------------|-----------------|-----------------|-------------------||
|-----------------|-----------------|-----------------|-------------------||
|-----------------|-----------------|-----------------|-------------------||
|-----------------|-----------------|-----------------|-------------------||
|-----------------|-----------------|-----------------|-------------------||
|-----------------|-----------------|-----------------|-----------------0-||


    Em
      E  Q   E +H         E  Q   E +H
||---------------------|-------------------|
||o--------------------|-------------------|
||---------------------|-------------------|
||-------2---5-(5)-----|-----4-------------|
||o--------------------|---------2-(2)-----|
||----0----0----0---0--|--0----0----0---0--|
|     Q    Q    Q   Q     Q    Q    Q   Q
|
|    +W                   W
||--(12)---------------|-------------------|
||o--------------------|-------------------|
||---------------------|-------------------|
||---------------------|-------------------|
||o--------------------|-------------------|
||---------------------|-------------------|
|
|     W                  +W
||---------------------|-------------------|
||o--------------------|-------------------|
||---------------------|-------------------|
||---------------------|-------------------|
||o--------------------|-------------------|
||----0----------------|-(0)---------------|


  E Q   E +H         E  Q   E +H
|-----------------|----------------------|
|-----------------|----------------------|
|-----------------|----------------------|
|---2---5-(5)-----|-----4----------------|
|-----------------|---------2-(2)--------|
|-0---0----0---0--|--0----0----0----0----|
| Q   Q    Q   Q     Q    Q    Q    Q
|
| W                  H         Q    Q
|-----------------|----------------12----|
|-----------------|----------------------|
|-----------------|----------------------|
|-----------------|----------------------|
|-----------------|----------------------|
|-----------------|----------------------|
|
| W                 +H.             E E
|-----------------|----------------------|
|-----------------|----------------------|
|-----------------|----------------------|
|-----------------|----------------------|
|-----------------|----------------------|
|-0---------------|-(0)-------------0-0--|


    E  Q   E +H         E  Q   E +H
|--------------------|-------------------|
|--------------------|-------------------|
|--------------------|-------------------|
|------2---5-(5)-----|-----4-------------|
|--------------------|---------2-(2)-----|
|---0----0----0---0--|--0----0----0---0--|
|   Q    Q    Q   Q     Q    Q    Q   Q
|
|  +W                   W
|-(12)---------------|-------------------|
|--------------------|-------------------|
|--------------------|-------------------|
|--------------------|-------------------|
|--------------------|-------------------|
|--------------------|-------------------|
|
|   W                  +W
|--------------------|-------------------|
|--------------------|-------------------|
|--------------------|-------------------|
|--------------------|-------------------|
|--------------------|-------------------|
|---0----------------|-(0)---------------|


  E Q   E +H         E  Q   E +H
|-----------------|----------------------|
|-----------------|----------------------|
|-----------------|----------------------|
|---2---5-(5)-----|-----4----------------|
|-----------------|---------2-(2)--------|
|-0---0----0---0--|--0----0----0-----0---|
| Q   Q    Q   Q     Q    Q    Q     Q
|
| W                  H         Q     Q
|-----------------|-----------------12---|
|-----------------|----------------------|
|-----------------|----------------------|
|-----------------|----------------------|
|-----------------|----------------------|
|-----------------|----------------------|
|
| W                 +H        +E  E  E E
|-----------------|----------------------|
|-----------------|----------------------|
|-----------------|----------------------|
|-----------------|----------------------|
|-----------------|----------------------|
|-0---------------|-(0)-------(0)-0--0-0-|


  Am
    E  Q   E +H         E  Q   E +H
|--------------------|-------------------|
|--------------------|-------------------|
|------2---5-(5)-----|-----4-------------|
|--------------------|---------2-(2)-----|
|---0----0----0---0--|--0----0----0---0--|
|--------------------|-------------------|
|   Q    Q    Q   Q     Q    Q    Q   Q
|
|  +W                   W
|-(12)---------------|-------------------|
|--------------------|-------------------|
|--------------------|-------------------|
|--------------------|-------------------|
|--------------------|-------------------|
|--------------------|-------------------|
|
|   W                  +W
|--------------------|-------------------|
|--------------------|-------------------|
|--------------------|-------------------|
|--------------------|-------------------|
|--------------------|-------------------|
|---5----------------|-(5)---------------|


  E Q   E +H         E  Q    E  +H
|-----------------|-----------------------|
|-----------------|-----------------------|
|---2---5-(5)-----|-----4---12-(12)-------|
|-----------------|---------12-(12)-------|
|-0---0----0---0--|--0----0------0-----0--|
|-----------------|-----------------------|
| Q   Q    Q   Q     Q    Q      Q     Q
|
| W                  W
|-----------------|-----------------------|
|-----------------|-----------------------|
|-----------------|-----------------------|
|-----------------|-----------------------|
|-----------------|-----------------------|
|-----------------|-----------------------|
|
| W                 +H           S S E Q
|-----------------|-----------------------|
|-----------------|-----------------------|
|-----------------|-----------------------|
|-----------------|-----------------------|
|-----------------|-----------------------|
|-5---------------|-(5)----------5s7-7-7--|


  Em
  E Q   E +H         E  Q   E +H
|-----------------|----------------------|
|-----------------|----------------------|
|-----------------|----------------------|
|---2---5-(5)-----|-----4----------------|
|-----------------|---------5-(5)--------|
|-0---0----0---0--|--0----0----0----0----|
| Q   Q    Q   Q     Q    Q    Q    Q
|
| W                  W
|-----------------|----------------------|
|-----------------|----------------------|
|-----------------|----------------------|
|-----------------|----------------------|
|-----------------|----------------------|
|-----------------|----------------------|
|
| W                 +H.            +E  E
|-----------------|----------------------|
|-----------------|----------------------|
|-----------------|----------------------|
|-----------------|----------------------|
|-----------------|----------------------|
|-0---------------|-(0)------------(0)-0-|


                   1.
  E Q   E +H         E  Q   E +H
|-----------------|-----------------------||
|-----------------|----------------------o||
|-----------------|-----------------------||
|---2---5-(5)-----|-----4-----------------||
|-----------------|---------5-(5)--------o||
|-0---0----0---0--|--0----0----0----0-----||
| Q   Q    Q   Q     Q    Q    Q    Q
|
| W                  H         Q    Q
|-----------------|----------------12-----||
|-----------------|----------------------o||
|-----------------|-----------------------||
|-----------------|-----------------------||
|-----------------|----------------------o||
|-----------------|-----------------------||
|
| W                 +H.            +E  E
|-----------------|-----------------------||
|-----------------|----------------------o||
|-----------------|-----------------------||
|-----------------|-----------------------||
|-----------------|----------------------o||
|-0---------------|-(0)------------(0)-0--||


  2.
  Em
   E  Q   E +H        E Q   E +H         E  Q   E +H        E Q   E +H
|-------------------|-----------------|-------------------|-----------------|
|-------------------|-----------------|-------------------|-----------------|
|-------------------|-----------------|-------------------|-----------------|
|-----4-------------|---2---5-(5)-----|-----4-------------|---2---5-(5)-----|
|---------5-(5)-----|-----------------|---------2-(2)-----|-----------------|
|--0----0----0---0--|-0---0----0---0--|--0----0----0---0--|-0---0----0---0--|
|  Q    Q    Q   Q    Q   Q    Q   Q     Q    Q    Q   Q    Q   Q    Q   Q
|
| Gtr III
| +W                  W                 +W                  W
|-------------------|-----------------|-------------------|-----------------|
|-------------------|-----------------|-------------------|-----------------|
|-------------------|-----------------|-------------------|-----------------|
|-------------------|-----------------|-------------------|-----------------|
|-------------------|-----------------|-------------------|-----------------|
|-(0)---------------|-0---------------|-(0)---------------|-0---------------|

                                                            
                                                         Segue into "Surfacing"

   E  Q   E +H        E Q   E +H         E  Q   E +H        W          +W
|-------------------|-----------------|-------------------|----------|--------*|
|-------------------|-----------------|-------------------|----------|--------*|
|-------------------|-----------------|-------------------|----------|--------*|
|-----4-------------|---2---5-(5)-----|-----4-------------|----------|--------*|
|---------2-(2)-----|-----------------|---------2-(2)-----|----------|--------*|
|--0----0----0---0--|-0---0----0---0--|--0----0----0---0--|-0--------|-(0)----*|
|  Q    Q    Q   Q    Q   Q    Q   Q     Q    Q    Q   Q
|
| +W                  W                 +W                  W          +W
|-------------------|-----------------|-------------------|-3--------|-(3)----*|
|-------------------|-----------------|-------------------|-5--------|-(5)----*|
|-------------------|-----------------|-------------------|-4--------|-(4)----*|
|-------------------|-----------------|-------------------|----------|--------*|
|-------------------|-----------------|-------------------|----------|--------*|
|-(0)---------------|-0---------------|-(0)---------------|----------|--------*|


Duration Legend
---------------
W - whole; H - half; Q - quarter; E - 8th; S - 16th; T - 32nd; X - 64th; a - acciaccatura
+ - note tied to previous; . - note dotted; .. - note double dotted
Uncapitalized letters represent notes that are staccato (1/2 duration)
Irregular groupings are notated above the duration line
Duration letters will always appear directly above the note/fret number it represents the
duration for.  Duration letters with no fret number below them represent rests.  Multi-
bar rests are notated in the form Wxn, where n is the number of bars to rest for.  Low
melody durations appear below the staff

Tablature Legend
----------------
 h   - hammer-on
 p   - pull-off
 b   - bend
 pb  - pre-bend
 r   - bend release (if no number after the r, then release immediately)
 /\  - slide into or out of (from/to "nowhere")
 s   - legato slide
 S   - shift slide
  - natural harmonic
[n]  - artificial harmonic
n(n) - tapped harmonic
 ~   - vibrato
 tr  - trill
 T   - tap
 TP  - trem. picking
 PM  - palm muting
\n/  - tremolo bar dip; n = amount to dip
 \n  - tremolo bar down
 n/  - tremolo bar up
/n\  - tremolo bar inverted dip
 =   - hold bend; also acts as connecting device for hammers/pulls
 <>  - volume swell (louder/softer)
 x   - on rhythm slash represents muted slash
 o   - on rhythm slash represents single note slash

Misc Legend
-----------
 |  - bar
||  - double bar
||o - repeat start
o|| - repeat end
*|  - double bar (ending)
 :  - bar (freetime)
 $  - Segno
 &  - Coda
Tempo markers -  = BPM(8/16=s8/s16), where s8 = swing 8ths, s16 = swing 16ths
Добавлено: 01.07.2015
Другие материалы по этой песне:

Страница создана 01.07.2015
http://primanota.ru/pink-floyd/eyes-to-pearls-chords.htm
Привет, Гость.
Предлагаем пройти революционный курс по гитаре.
Подарок от PrimaNota.Ru, забирай!