PrimaNota.ru - самый крупный в мире бесплатный архив песенных текстов, аккордов, табулатур и нот


Pink Floyd - Shine On You Crazy Diamond Part I - V - таба, видео

Регистрация Запомнить меня
Войти через:  Facebook Google Twitter Vk Yandex Mail.ru

Pink Floyd - Shine On You Crazy Diamond Part I - V - таба, видео

Печатать
Просмотров: 186
---------------------------------------------------------------------------------------------------
                                          Artist - Pink Floyd
                                         *********************
                               Song - Shine On You Crazy Diamond (Parts I-V)
                              ***********************************************
                                       Album - Wish You Were Here  
                                      ****************************
                                          Tabbed By - Ayreon77
                                         **********************
---------------------------------------------------------------------------------------------------
Tuning = Standard

                                     Giving credit to 
                                       Matt Montoya
                                       ************
            Most of his stuff was pretty good, but there was too many mistakes 
  just to mention in the corrections, so I re-tabbed it and fixed the mistakes, and changed some 
                      fingering on the fret board for easier playing.


SOLO 1
*******
02:14
    b/\/\/\/\/\/      b/\/\/\/\/\/\
e|-13------------13--13-------------|-----------b/\/\/\/\/\/\------b/\/\/\/\/\/\-|--rbp------10----10-|
B|----------------------------------|----11-13-13-------------13--13-------------|-13--11-13----13----|
G|----------------------------------|-12-----------------------------------------|--------------------|
D|----------------------------------|--------------------------------------------|--------------------|
A|----------------------------------|--------------------------------------------|--------------------|
E|----------------------------------|--------------------------------------------|--------------------|


e|---h--p---------------------|--------------------------------------------|------------------|
B|-10-11-10----10-------------|---b---b/\/\/\/\/\---rb---h-------b/\/\/\/\-|---b-r-----h------|
G|----------12----10-10----10-|-12---12------------12--10-12--12-----------|-12------10-12-12-|
D|----------------------12----|--------------------------------------------|------------------|
A|----------------------------|--------------------------------------------|------------------|
E|----------------------------|--------------------------------------------|------------------|

02:48       b /\/\/\/\/\              b    s                       hold
e|---b-13--13------------|--b-15-18--18-18-\-|--rb-----------------bend---------|
B|-13--------------------|-18----------------|-13---------------b--|--|-----h---|
G|-----------------------|-------------------|----------10-12--12-12-12---10-12-|
D|-----------------------|-------------------|-------12-------------------------|
A|-----------------------|-------------------|----------------------------------|
E|-----------------------|-------------------|----------------------------------|

03:09
e|--rbp------10---b-13-|--b-15--b----rbp------|--rbp---------|----------|--rbp------10-|
B|-13--11-13-----13----|-18----18---18--15--b-|-13--11-13-13-|---s---11-|-13--11-13----|
G|---------------------|-------------------17-|--------------|-10\12----|--------------|
D|---------------------|----------------------|--------------|----------|--------------|
A|---------------------|----------------------|--------------|----------|--------------|
E|---------------------|----------------------|--------------|----------|--------------|

03:27                                 b   br
e|--b-13--b/\/\/\-|--b-15-18------18-20--18-17----15-|
B|-13----13-------|-18-------------------------18----|
G|----------------|------------19--------------------|
D|----------------|----------------------------------|
A|----------------|----------------------------------|
E|----------------|----------------------------------|



--------------------------------------
04:00
Clean Picking
**************
 GUITAR 1
  04:00                     04:12                   04:24                  04:29
           /\/\/\/\/\/\/\           /\/\/\/\/\/\/\          /\/\/\/\/\/\/\         /\/\/\/\/\/\/\
e|-------0------------------------0-----------------------0----------------------0---------------|
B|---6------------------------6-----------------------6----------------------6-------------------|
G|-----0------------------------0-----------------------0----------------------0-----------------|
D|-8------------------------8-----------------------8----------------------8---------------------|
A|-----------------------------------------------------------------------------------------------|
E|-----------------------------------------------------------------------------------------------|

   04:34                    04:40                     04:44
           /\/\/\/\/\/\/\           /\/\/\/\/\/\/\    
e|-------0------------------------0---------------------------------------------------|
B|---6------------------------6-------------------------------------------------------|
G|-----0------------------------0-----------------------------------------------------|
D|-8------------------------8----------------------------------------------s----------|
A|----------------------------------------------------3-3-3-3-3-3-3-3-3-3-3/5---------|
E|----------------------------------------------------1-1-1-1-1-1-1-1-1-1-1/3---------|
 |                                                                                    |
 |GUITAR 2                                                                            |
e|------------12~~~~--------------------12~~~~---------------------------------10~~~~-|
B|------------13~~~~--------------------13~~~~---------------------------------11~~~~-|
G|------------12~~~~--------------------12~~~~---------------------------------12~~~~-|
D|------------------------------------------------------------------------------------|
A|------------------------------------------------------------------------------------|
E|------------------------------------------------------------------------------------|


  GUITAR 1
   04:50   /\/\/\/\/\/\/\   04:56 /\/\/\/\/\/\                05:05
e|-------0------------------------------------------------------------------------------------|
B|---6------------------------6---------------------------------------------------------------|
G|-----0------------------------0-8------------8--7-------------------------------------------|
D|-8------------------------8------------------------------------------------------s----------|
A|------------------------------------------------------------3-3-3-3-3-3-3-3-3-3-3/5---------|
E|------------------------------------------------------------1-1-1-1-1-1-1-1-1-1-1/3---------|
 |                                                                                            |
 |GUITAR 2                                                                                    |
e|-----------10~~~~-------------------11~~~~---------10~~~~----------------------------10~~~~-|
B|-----------11~~~~-------------------11~~~~---------10~~~~----------------------------11~~~~-|
G|-----------12~~~~-------------------12~~~~---------11~~~~----------------------------12~~~~-|
D|--------------------------------------------------------------------------------------------|
A|--------------------------------------------------------------------------------------------|
E|--------------------------------------------------------------------------------------------|

 
  GUITAR 1
   05:11   /\/\/\/\/\/\/\
e|-------0---------------|
B|---6-------------------|
G|-----0-----------------|
D|-8---------------------|
A|-----------------------|
E|-----------------------|
 |                       |
 |GUITAR 2               |
e|-----------10~~~~------|
B|-----------11~~~~------|
G|-----------12~~~~------|
D|-----------------------|
A|-----------------------|
E|-----------------------|



--------------------------------------
05:17
SOLO 2
*******                                            p           b
e|--b-r---------------|---3--------------------|-18-15----18--17-17-----p----b-----rbp------|
B|-13---11-13---------|-3---6--b---rbp---------|-------15-------------18-15-18----18--15-18-|
G|------------12~~~~~-|--------5--5---3--5-3---|--------------------------------------------|
D|--------------------|----------------------5-|--------------------------------------------|
A|--------------------|------------------------|--------------------------------------------|
E|--------------------|------------------------|--------------------------------------------|
                            PH 
     p         p        b    rbp                            05:48
e|-18-15-----18-15-----18-|-18--15-18--b-|---brb-----------|--------------------|-----------|-----6----s--|
B|-------15--------15-----|-----------18-|-11--------11----|--s-----------------|-----------|--s----6-6\8-|
G|------------------------|--------------|--------12----12-|-7\5-3-----------s--|-----3--s--|-6\7---------|
D|------------------------|--------------|-----------------|-------5---s----3\5-|--s----3\5-|-------------|
A|------------------------|--------------|-----------------|----------5\3-1-----|-3\5-------|-------------|
E|------------------------|--------------|-----------------|--------------------|-----------|-------------|

05:57                                                       06:11                     b 
e|--rbp-------s---|-----brb---b----b----b-r---|--h-p-------|--b-15--brp---|--b-15-17-17-17--b-|
B|-10--8----8-\11-|-11-13----13---13---13-----|-7-8-7--s---|-18----18--15-|-18-------------18-|
G|-------10-------|------------------------11-|-------9\11-|--------------|-------------------|
D|----------------|---------------------------|------------|--------------|-------------------|
A|----------------|---------------------------|------------|--------------|-------------------|
E|----------------|---------------------------|------------|--------------|-------------------|


e|--rbp---------------------------|---------|---------|------------------------------|
B|-18--15-18--b---r---brp---------|-------b-|-rb----b-|-b-3-6-b--rbp--3/\/\/\/\/\/\/-|
G|-----------17------17--15-----s-|---3-5-5-|-5-3-5-5-|-5-----5--5--3----------------|
D|--------------------------17--\-|-5-------|---------|------------------------------|
A|--------------------------------|---------|---------|------------------------------|
E|--------------------------------|---------|---------|------------------------------|


--------------------------------------
06:33
SYNTH SOLO
***********
  Gm                                                  Cm           s            Gm
e|-3---3-------s----3---3-----3---3-------s----3---3-|-3---3------5\3---3---3-|-3---3-------s---3---3-|
B|-3---3------5\3---3---3-----3---3------5\3---3---3-|-4---4---s--------4---4-|-3---3------5\3--3---3-|
G|-3---3---s--------3---3-----3---3---s--------3---3-|-5---5--3\5-------5---5-|-3---3---s-------3---3-|
D|-5---5--3\5-------5---5-----5---5--3\5-------5---5-|-5---5------------5---5-|-5---5--3\5------5---5-|
A|---------------------------------------------------|------------------------|-----------------------|
E|---------------------------------------------------|------------------------|-----------------------|

  Eb        D       Eb             D       Gm  Cm  Gm  D7#9
e|-----11-------10-------11----s-------10-|-3---3---3---------------|
B|-8---11---7---10---8---11--11\---7---10-|-3---4---3---6-~~~~~~~~~-|
G|-8---12---7---11---8---12----s---7---11-|-3---5---3---5-~~~~~~~~~-|
D|-8--------7--------8-------11\---7------|-5---5---5---4-~~~~~~~~~-|
A|-6--------5--------6-------------5------|-------------5~~~~~~~~~~-|
E|----------------------------------------|-------------------------|



--------------------------------------
07:40
SOLO 3
*******          p                                                                           s 
e|----15--b-15-18-15--b--s-|---3------------------|---b-r-b----------------|--b-18--b-|-----6\5--s--s-|
B|-15----18----------18--\-|-3---6-b--brp----p----|-11-------s---11-----11-|-18----18-|--s------6\8-\-|
G|-------------------------|-------5--5--3--5-3---|----------\12----12-----|----------|-5\7-----------|
D|-------------------------|--------------------5-|------------------------|----------|---------------|
A|-------------------------|----------------------|------------------------|----------|---------------|
E|-------------------------|----------------------|------------------------|----------|---------------|

                                                          08:07 
e|---b-r-b-|---------rbp----------p-----------p----b-r-b-|-3----------------|-----------------|-------------|
B|-11------|-s---11-13--11-13---13-11-13-13-13-13-13-----|---6-b---b--------|------s----------|-------------|
G|---------|-\12-----------------------------------------|-----5-5-3--3---3-|-5---3\2---------|-----3----s--|
D|---------|---------------------------------------------|--------------5---|---5-----5----s--|--s----3-3\5-|
A|---------|---------------------------------------------|------------------|-----------3-3\5-|-3\5---------|
E|---------|---------------------------------------------|------------------|-----------------|-------------|

                                  p    b    rbp
e|---b-r-b-|--b-15--b---|--b-15-18-15-18-|-18--15-18--b-|----------10--b----b------------------------------|
B|-11------|-18----18---|-18-------------|-----------18-|----11-13----14---14-------h--p-----------------s-|
G|---------|----------0-|----------------|--------------|-12------------------11--11-12-11----11-12-11-12\-|
D|---------|------------|----------------|--------------|----------------------------------14--------------|
A|---------|------------|----------------|--------------|--------------------------------------------------|
E|---------|------------|----------------|--------------|--------------------------------------------------|
                                                        |                                                  |
                                                        |Guitar 2                                          |
                                                       e|--------------------------------------------------|
                                                       B|--------------------------------------------------|
                                                       G|---------------------------h--p-----------------s-|
                                                       D|---------------------16--16-17-16----16-17-16-17\-|
                                                       A|----------------------------------19--------------|
                                                       E|--------------------------------------------------|


e|---3-----|---------------------------|
B|-3---6-b-|-rbp-----------------------|
G|-------5-|-5--3-5-3---3--------------|
D|---------|----------5---5--s------s--|
A|---------|----------------5\3-1--3\5-|
E|---------|---------------------------|


--------------------------------------
VERSE 1
********
       Gm                                        F#                 A#
       Remember when you were young,             you shone like the sun
e|-------------------------------------------------------------------------------|
B|---------------------------------------br-------------------------3---3-3--3-3-|
G|-----------------------------------3---5--------------------------3---3-3--3-3-|
D|---------------------------------5---5----4-----------------------3---3-3--3-3-|
A|------------------------------------------------------------------1------------|
E|-------------------------------------------------------------------------------|

      D#    D      C    A#  F 
      Shine on you cra  zy diamond
e|----------------------------------------------|
B|----------------------------------------------|
G|----8-----7------5----3-----------------------|
D|----8-----7------5----3---3-------b-r---------|
A|----6-----5------3----1---3-------3-----------|
E|--------------------------1-----------1---1-2-|

   Gm                                      F#                      A#
   Now there's a look in your eyes         like black holes in the sky
e|--------------------------------b-r-------------------------------------------|
B|--------------------------------6--b-----------------------------3---3-3--3-3-|
G|-----------------------------------5--6--------------------------3---3-3--3-3-|
D|-----------------------------------------------------------------3---3-3--3-3-|
A|-----------------------------------------------------------------1------------|
E|------------------------------------------------------------------------------|

      D#    D      C    A#  F 
      Shine on you cra  zy diamond                 s
e|----------------------------------13-13-13--10--8\10-1-|
B|----------------------------------13-13-13--10--8\10-1-|
G|----8-----7------5----3--------------------------------|
D|----8-----7------5----3---3----------------------------|
A|----6-----5------3----1---3----------------------------|
E|--------------------------1----------------------------|


    You were caught in the crossfire,      Of childhood and stardom,   Blown on the steel breeze
e|-----------------------------------------------------------------------------------------------|
B|-----------------br-------------------------------br-----------------------b-r-----------------|
G|-------------3-5-5----------------------------3-5-5--------------------3-5-5-------------------|
D|-----------5--------------------------------4------------------------3-----------2-------------|
A|-----------------------------------------------------------------------------------------------|
E|-----------------------------------------------------------------------------------------------|

       C'mon you target   For far away laughter,  Come on you stranger, you legend, you marter
e|---------------------------------0--------------------1---------------------1---------2-|
B|-------------h--5--------------1---1----------------3---3-----------------3---3---------|
G|---------s--3-5-4------------3-------3------------3-------3-----------------------------|
D|--h-----1\5----------------2--------------------3---------------------------------------|
A|-3-5-6----------------------------------------------------------------------------------|
E|----------------------------------------------------------------------------------------|


--------------------------------------
09:51
SOLO 4 In between Verses
*******
  GUITAR 1 
e|----------------|---------------------------b------------------------|-----------|
B|-b----brp----b--|-b--------------------6----8-8----b------b---p------|-----------|
G|-5----5--3---5--|-5--3--5--6--7---7-8--------------7-7----8--8-7--5--|-----------|
D|----------------|----------------------------------------------------|-----------|
A|----------------|----------------------------------------------------|-br--------|
E|----------------|----------------------------------------------------|-3--1--1-2-| 
 |                                                                                 |
 |GUITAR 2                                     b                                   |
e|--b----brp------|--b--------------------13--15-15--b------b---p------|-----------|
B|-13--13---11-13-|-13-11-13-14-15--15-16-----------15-15--16-16-15-13-|-----------|
G|----------------|----------------------------------------------------|-----------|
D|----------------|----------------------------------------------------|--br-------|
A|----------------|----------------------------------------------------|-10-8--8-9-|
E|----------------|----------------------------------------------------|-----------|


--------------------------------------
VERSE 2
********
      Gm                                         F#                A#
  You reached for the secret to soon,            you cried for the moon
e|------------------------------------------------------------------------------|
B|--------------------------------------br-------------------------3---3-3--3-3-|
G|-----------------------------------5--5--3-----------------------3---3-3--3-3-|
D|-------------------------------------------4---------------------3---3-3--3-3-|
A|-----------------------------------------------------------------1------------|
E|------------------------------------------------------------------------------|

      D#    D      C    A#  F 
      Shine on you cra  zy diamond
e|--------------------------------------------|
B|--------------------------------------------|
G|----8-----7------5----3---------------------|
D|----8-----7------5----3---3-------b-r-------|
A|----6-----5------3----1---3-------3---b-r---|
E|--------------------------1-----------3---1-|

  Gm                                               F#                  A#
  Threatened by shadows at night,                  when exposed in the light
e|-------------------------------brb------------------------------------------------|
B|-------------------------------6---6-b---h-p-------------------------3---3-3--3-3-|
G|-------------------------------------5--3-5-3------------------------3---3-3--3-3-|
D|---------------------------------------------------------------------3---3-3--3-3-|
A|---------------------------------------------------------------------1------------|
E|----------------------------------------------------------------------------------|

      D#    D      C    A#  F 
      Shine on you cra  zy diamond                 s
e|----------------------------------13-13-13--10--8\10-1--|
B|----------------------------------13-13-13--10--8\10-1--|
G|----8-----7------5----3---------------------------------|
D|----8-----7------5----3---3-----------------------------|
A|----6-----5------3----1---3-----------------------------|
E|--------------------------1-----------------------------|


   Well, you wore out your welcome,      with random precision,        rode on the steel breeze.
e|-----------------------------------------------------------------------------------------------|
B|-----------------br-------------------------------br-----------------------b-r-----------------|
G|-------------3-5-5----------------------------3-5-5--------------------3-5-5-------------------|
D|-----------5--------------------------------4------------------------3-----------2-------------|
A|-----------------------------------------------------------------------------------------------|
E|-----------------------------------------------------------------------------------------------|

       Come on you raver, you seer of visions, come on you painter, you piper, you prisoner, and shine!
e|----------------------------------0----------------1--------------------1---------2------------------|
B|-------------h--5---------------1---1------------3---3----------------3---3--------------------------|
G|---------s--3-5-4-------------3-------3--------3-------3---------------------------------------------|
D|--h-----1\5-----------------2----------------3-------------------------------------------------------|
A|-3-5-6-----------------------------------------------------------------------------------------------|
E|-----------------------------------------------------------------------------------------------------|


SAX
****
check out bambam outro is spot on


ENJOY............
Добавлено: 01.07.2015
Другие материалы по этой песне:

Страница создана 01.07.2015
http://primanota.ru/pink-floyd/shine-on-you-crazy-diamond-part-i-v-2-chords.htm
Привет, Гость.
Предлагаем пройти революционный курс по гитаре.
Подарок от PrimaNota.Ru, забирай!