PrimaNota.ru - самый крупный в мире бесплатный архив песенных текстов, аккордов, табулатур и нот


Paul Gilbert - Red Rooster - таба, видео

Регистрация Запомнить меня
Войти через:  Facebook Google Twitter Vk Yandex Mail.ru

Paul Gilbert - Red Rooster - таба, видео

Печатать
Просмотров: 204
This is "Red Rooster" from that guitar wars video. Awesome solo from Paul!!

Intro:

E-----------------------------------------------------------------|
B-----------------------------------------------------------------|
G-9-9-9-9-9------------------------12-12-12-12---------9-12-9-----|
D-9-9-9-9-9--------9-12-9----------11-11-11-11---10h11--------10--|
A-7-7-7-7-7--11h12--------10-11-12--------------------------------|
E-----------------------------------------------------------------|

Lick 1:

E---------------------------------------------------|
B---------------------------------------------3~----|
G----------------2---4-2---------0-1----------2~----|
D------1--2-3--4---4-----4-3-2-0--------------0~----|
A-1--2--------------------------------2-2-2-2-------|
E-------------------------------------0-0-0-0-------|

I, IV, V Blues Progression for verses and they all end w/ “Lick 1”


 Verse 1

 Verse 2


Solo:
               |----3x-------------------------------------------------------------------|
E-14b15r14p12--14b15--14--12----15b17--15~--12h15p12-------------------------------------|
B----------------------------------------------------15-12--15====b17r15-12----12--------|
G---------------------------------------------------------------------------15----15-14--|
D----------------------------------------------------------------------------------------|
A----------------------------------------------------------------------------------------|
E----------------------------------------------------------------------------------------|


  |---4x-----------------------------------------------------------------|  VERY STACATTO
E-------12--15-14-13-12--------------------------------------------------|
B-13h14-----------------15-14-13-12--------------------------------------|
G-----------------------------------15-14-12-----------------------------|
D--------------------------------------------14-12----------------13~----|
A--------------------------------------------------14-13-12-13-14--------|
E------------------------------------------------------------------------|

E-------------------------------0-3p0---0--------------------------------------------|
B-------------------------------------3---3-0-3p0---0--------------------------------|
G-14----14-13-12~~-12----12-9---------------------2---2-0-2p0----0-------------------|
D----13---------------11---------------------------------------2---2-0-2p0---0-------|
A--------------------------------------------------------------------------2---2-0---|
E------------------------------------------------------------------------------------|

                                     Many Times   2 Times
E-----------------------------------|------------|-----------------|
B---------------------------8-10-10-|-10b12r10-8-|--10b12-8--------|
G---------------0-2-3-4-7-9---------|------------|----------9-9~---|
D-----------0-2---------------------|------------|-----------------|
A-----0-1-2-------------------------|------------|-----------------|
E-0-3-------------------------------|------------|-----------------|

E----------14-16-17--17p16p14----14-----------------12-14-15-15p14p12----12---------|
B-14-15-16--------------------16----16-14--12-13-14-------------------15----15p12---|
G-----------------------------------------------------------------------------------|
D-----------------------------------------------------------------------------------|
A-----------------------------------------------------------------------------------|
E-----------------------------------------------------------------------------------|

E-15p12----12------------------------------|
B-------15----15-12-15p12---12-15b17~~~----|
G------------------------14----------------|
D------------------------------------------|
A------------------------------------------|
E------------------------------------------|

Verse 3

Outro:

E-3p0-----0------------------------------------------------------|
B-----3p0---3-0---3p0---0----------------------------------------|
G---------------3-----3---3-2p0---[2]/3p0-----0----------8--7~---|
D-------------------------------2---------2p0---2-0-1-2--7--6~---|
A--------------------------------------------------------8--7~---|
E----------------------------------------------------------------|

 Many Times
E----12h15h19p15p12---|
B---------------------|
G-16------------------|
D---------------------|
A---------------------|
E---------------------|

  Many Times           Many Times
E----15h16h19p16p15-|----18h19h22p19p18-|----18--22b24--b24~~----------|
B-17----------------|-20----------------|-20---------------------------|
G-------------------|-------------------|------------------------------|
D-------------------|-------------------|------------------------------|
A-------------------|-------------------|---------------------------2--|
E-------------------|-------------------|--------------------3=b4---0--|
Добавлено: 23.05.2012
Другие материалы по этой песне:

Страница создана 26.02.2012
http://primanota.ru/paul-gilbert/red-rooster-chords.htm
Привет, Гость.
Предлагаем пройти революционный курс по гитаре.
Подарок от PrimaNota.Ru, забирай!