PrimaNota.ru - самый крупный в мире бесплатный архив песенных текстов, аккордов, табулатур и нот


Paul Gilbert - Curse Of Castle Dragon - таба, бас-таба, видео

Регистрация Запомнить меня
Войти через:  Facebook Google Twitter Vk Yandex Mail.ru

Paul Gilbert - Curse Of Castle Dragon - таба, бас-таба, видео

Печатать
Просмотров: 334
key:
b - bend
* - harmonic
/ - slide down
\ - slide up
. - palm mute
h - hammer-on
p - pull-off
x - dead note


Intro
E|--5*----|
B|---5*---|
G|----5*--|
D|--------|
A|--------|
E|--------|

E|-------------------------------------------------|
B|-------------------------------------------------|
G|---------2---------------------------------------|
D|---------2-22222222222222222222222222222222------|
A|-12////--0-00000000000000000000000000000000------|
E|-12////------------------------------------------|
             ........................

Riff A (listen to song for exact timing and rythm)
E|------------------------------------------------------------------|
B|------------------------------------------------------------------|
G|------------------------------------------------------------------|
D|-2-2---2-------2-------------10-10-10-10-10-10-10-10-10-10--2-0---|  x2
A|-0-0-0-0--0-0--0-0--0-2-3-3--8--8--8--8--8--8--8--8--8--8-------3-|
E|--------------------------1---------------------------------------|
       .    . .    .           .  .  .  .     .  .     .  .

then....
E|------3-----------------------------------------|
B|------3-------------------------5---------------|
G|------0--2///12\\\2-------------4---------------|
D|------0--2///12\\\2-------------2---------------|
A|-5----0---------------------2---2---3---5-------|
E|-3-3--3--------------3-5-7--0-0-0-0-1-1-3-3///--|

E|---------------------------------------      E------------|
B|---------------------------------------      B------------|
G|---------------------------------------      G------------|
D|--------------------------------------- x3   D------------|
A|--7-------------7-------------7h8p7----      A---7\\\\----|
E|----10-8-7-8-10---10-8-7-8-10-------10-      E---5\\\\----|
      .. . . . ..   .. . . . ..       ..
Riff B
E|--17b-17-----------------------------------------------------|
B|---------20-17-----------------------------------------------|
G|---------------20-19-17b-------14b*-14--12-------------------| x2
D|-------------------------19\\--------------14-13-12----------|
A|----------------------------------------------------15b-12\\-|
E|-------------------------------------------------------------|

Riff C
E|-----------------------------------------------------|
B|-----------------------------------------------------|
G|-------------5-7-5--------------5-7-5----------------|
D|-------------5-7-5--------------5-7-5-xxxxxxxxxxxxxx-|
A|-000-000-000--------000-000-000-------xxxxxxxxxxxxxx-|
E|--------------------------------------xxxxxxxxxxxxxx-|
   ... ... ...        ... ... ...

Riff D
E|------------------------------------------------------------|
B|------------------------------------------------------------|
G|--------2-4-5------------10--9h10p9p7-----------------------|
D|-------2--------7--9---10-------------10-9-7----------------|
A|-0-2-3--------5--7--8------------------------10-8-7---------|
E|----------------------------------------------------10-8-7--|

E|-------------------7---10--13p12p10------------------------------------|
B|------------------------------------13p12p10---------------------------|
G|----------7---10-7---10----------------------10p9p7--------------------|
D|------9-----9---------------------------------------10p9p7-------------|
A|-8------8--------------------------------------------------8p7p5-------|
E|---10------------------------------------------------------------8p7p5-|

E|----------------|
B|----------------|
G|----------------|
D|----------------|
A|--10p8p7--------|
E|---------10p8p7-|

E|------------------------------------------------------------|
B|------------------------------------------------------------|
G|--------2-4-5------------10--9h10p9p7-----------------------|
D|-------2--------7--9---10-------------10-9-7----------------|
A|-0-2-3--------5--7--8------------------------10-8-7---------|
E|----------------------------------------------------10-8-7--|

E|-------------------7---10-------------------------------------10h12h13-|
B|-----------------------------------------------------10h12h13----------|
G|----------7---10-7---10-----------------------7h9h10-------------------|
D|------9-----9--------------------------7h9h10--------------------------|
A|-8------8------------------------5h7h8---------------------------------|
E|---10----------------------5h7h8---------------------------------------|

E|-----------------------------|
B|-----------------------------|
G|-----------------------------|
D|----------10h12h14p12h14p12--|
A|-10h12h14--------------------|
E|-----------------------------|

Riff E
E|----------10-12-13-12h13p12p10---------------|
B|---------------------------------------------|
G|-10-12-14----------------------14-12-10------|
D|----------------------------------------12-7-|
A|---------------------------------------------|
E|---------------------------------------------|

E|-------5-7-8-7h8p7p5-------------|
B|---------------------------------|
G|-5-7-9----------------9-7-5------|
D|----------------------------7----|
A|------------------------------8--|
E|---------------------------------|

E|------------------------------------|
B|--------6-8-10p8h10p8p6------10b-10-|
G|------------------------7-----------|
D|-7-9-10-------------------8---------|
A|------------------------------------|
E|------------------------------------|

Riff F
E|-3----------------------------------------------------------|
B|-3----------------------------------------------------------|
G|-0--191716-171614-161412-141210-12109-1097-975-754-5420-----|
D|-0------------------------------------------------------2---|
A|-0----------------------------------------------------------|
E|-3----------------------------------------------------------|

E|---------------------|
B|---------------------|
G|---------------------|
D|-0h2p0h2p0h2p0-------|
A|---------------3---2-|
E|-----------------0---|

Riff G
E|--------------------------------      E|----------------------------|
B|--------------------------------      B|----------------------------|
G|-9p7------9p7-------10-10-10-10-      G|-9-7------------------------|
D|-----10p7-----10p7-------------- x3   D|-----10-9-7-----------------|
A|--------------------------------      A|------------10-8-7----------|
E|--------------------------------      E|-------------------10-8-7-8-|

Riff H
E|---------------------------------------------------------------------|
B|10/13-13----12----10---9---6---5---3---1---3---5---9---6---10---9----|
G|--------13----10----9---7---5---4---2---2---2---4---7---5----9---7---|
D|----------12----10---9---7---6---3---2---2---2---3---7---6----9---7--|
A|---------------------------------------------------------------------|
E|---------------------------------------------------------------------|
          ....  ....  ..  ..  ..  ..  ..  ..  ..  ..  ..  ..   ..  ..
E|-------------|
B|-10---12-----|
G|---9----10---|
D|----9-----10-|
A|-------------|
E|-------------|
     ..   ....
E|--------------------------------------------------------------------|
B|-13----12----10---9---6---5---3---1---9---10---12-----13------------|
G|---13----10----9---7---5---4---2---2---7----9----10-----13---15b----|
D|-----12----10---9---7---6---3---2---2---7----9-----10-----14--------|
A|--------------------------------------------------------------------|
E|--------------------------------------------------------------------|

   SOLO!
E|--------16--17-----------//21-20-21-------------------------17-19-21-22-|
B|-17b-17--------15-17b-17----------------------------17-19-21------------|
G|--------------------------------------------16-18-19--------------------|
D|------------------------------------16-18-19----------------------------|
A|------------------------------------------------------------------------|
E|------------------------------------------------------------------------|

E|-19b-19--19--------------19--------------21--------------21---------------|
B|-----------22-21-20-21-22--22-21-20-21-22--24-23-21-23-24--24-23-21-23-24-|
G|--------------------------------------------------------------------------|
D|--------------------------------------------------------------------------|
A|--------------------------------------------------------------------------|
E|--------------------------------------------------------------------------|

E|-21--------------21--------------19--------------19----------------|
B|---24-23-21-23-24--24-23-21-23-24--22-21-20-21-22--22-21-20-21-22--|
G|-------------------------------------------------------------------|
D|-------------------------------------------------------------------|
A|-------------------------------------------------------------------|
E|-------------------------------------------------------------------|

E|-19--------------19--------------17--------------17----------------|
B|---22-21-20-21-22--22-21-20-21-22--21-19-17-19-21--21-19-17-19-21--|
G|-------------------------------------------------------------------|
D|-------------------------------------------------------------------|
A|-------------------------------------------------------------------|
E|-------------------------------------------------------------------|

E|-16--------------16--------------17--------------17----------------|
B|---19-17-15-17-19--19-17-15-17-19--21-19-17-19-17--21-19-17-19-17--|
G|-------------------------------------------------------------------|
D|-------------------------------------------------------------------|
A|-------------------------------------------------------------------|
E|-------------------------------------------------------------------|

E|-17-19-21-19-17--17--------------17-21-17-19-21-19-17--17---------------|
B|---------------21--21-19-17-19-17--------------------21--21-19-17-19-17-|
G|------------------------------------------------------------------------|
D|------------------------------------------------------------------------|
A|------------------------------------------------------------------------|
E|------------------------------------------------------------------------|

E|-17-19-21-19-17--17--------------17-19-21-19-17-------------------------|
B|---------------21--21-19-17-19-21--------------21-19-17-----------------|
G|-------------------------------------------------------19-18-16---------|
D|---------------------------------------------------------------19-18-16-|
A|------------------------------------------------------------------------|
E|------------------------------------------------------------------------|

E|-------------------------17-19-21-22-23-24-24b-24-23-21-23-----|
B|-----------------17-19-21----------------------------------24--|
G|---------16-18-19----------------------------------------------|
D|-16-18-19------------------------------------------------------|
A|---------------------------------------------------------------|
E|---------------------------------------------------------------|

E|-21-19----21-19-22--21h22p21p19---19-------------------|
B|-------22-----------------------22--22-21-19-21-22-----|
G|---------------------------------------------------18--|
D|-------------------------------------------------------|
A|-------------------------------------------------------|
E|-------------------------------------------------------|

E|-14h17p14---14-----------------------------------------|
B|-------------------------------------------------------|
G|----------18---18-16-14-16-16bp14-13h14p13h14p13-14b*--|
D|-------------------------------------------------------|
A|-------------------------------------------------------|
E|-------------------------------------------------------|

Riff B
Riff C
Riff D (alternate endings)
  1st time
E|-13-12-10----------16-13-12----------17-16-13----------19b-|
B|----------13-12-10----------15-13-12----------17-15-13-----|
G|-----------------------------------------------------------|
D|-----------------------------------------------------------|
A|-----------------------------------------------------------|
E|-----------------------------------------------------------|

2nd time
E|-14p12p10---------------------10h12h14--19p16p13----13-19h22p19p16/13--13-|
B|-------------------------------------------------15------------------15---|
G|----------14p12p10----10h12h14--------------------------------------------|
D|--------------------------------------------------------------------------|
A|-------------------12-----------------------------------------------------|
E|--------------------------------------------------------------------------|

Riff G

E|-12p10-------12p10-------13-13-13-13-|
B|-------13p10-------13p10-------------|
G|-------------------------------------|
D|-------------------------------------| x3
A|-------------------------------------|
E|-------------------------------------|

E|-12-12-12-12-15-15-15-15-13-13-13-13-17-17-17-17-15-15-15-15-19-19-19-19-|
B|-------------------------------------------------------------------------|
G|-------------------------------------------------------------------------|
D|-------------------------------------------------------------------------|
A|-------------------------------------------------------------------------|
E|-------------------------------------------------------------------------|

E|-17-17-17-17-20-20-20-20-22//--|
B|-------------------------------|
G|-------------------------------|
D|-------------------------------|
A|-------------------------------|
E|-------------------------------|

Riff A

   there you have it
Добавлено: 05.04.2012
Другие материалы по этой песне:

Страница создана 06.03.2012
http://primanota.ru/paul-gilbert/curse-of-castle-dragon-chords.htm
Привет, Гость.
Предлагаем пройти революционный курс по гитаре.
Подарок от PrimaNota.Ru, забирай!