PrimaNota.ru - самый крупный в мире бесплатный архив песенных текстов, аккордов, табулатур и нот


Paul Gilbert - Rusty Old Boat - таба, видео

Регистрация Запомнить меня
Войти через:  Facebook Google Twitter Vk Yandex Mail.ru

Paul Gilbert - Rusty Old Boat - таба, видео

Печатать
Просмотров: 288
This is not the whole song (I'm working on that) but this is the intro.
Its not hard to play just get the
time down on the slides and you'll be fine.
I don't know if this is 100% right,some notes might be off.


Legend

h_Hammer On
P_Pull Off
x_Mute String
/_Slide Up
\_Slide Down
._Palm Mute
~_Vibrato


e||---------------|-----------------------|---|
B||---------------|-----------------------|---|
G||---------------|-----------------------|---|
D||-/9-7-5-7-5----|-----------------------|---|
A||------------7~-|-------0h2h5-5/7-0-2-5-|---|
E||---------------|-0h2h5-----------------|---|

e||---------------|-------------------------------|---|
B||---------------|-------------------------------|---|
G||---------------|-------------------------------|---|
D||-/9-7-5-7-5----|-------------------------------|---|
A||------------7~-|-------0h2h5-5-5-5-5-5-5-5-2/4-|---|
E||---------------|-0h2h5-------------------------|---|
                              pm . . . . . .


e||---------------|-----------------------|-----------------------|
B||---------------|-----------------------|-----------------------|
G||---------------|-----------------------|-2p0-------------------|
D||-/9-7-5-7-5----|-----------------------|-----2p0------3x-------|
A||------------7~-|-------0h2h5-5/7-0-2-5-|---------2p0--3x-------|
E||---------------|-0h2h5-----------------|--------------3x-------|
                                                    {mute^^string}


|-----------------------------------------------------------------||
|-----------------------------------------------------------------||
|-----------------------------------------------------------------||
|-----------------------------------------------------------------||
|-------h2h5--------h5h7---------h7h10----------h10h12-10~~-------||
|-0h2h5-------0h5h7-------0h7h10--------0h10h12-------------------||

enjoy.
Добавлено: 29.03.2012
Другие материалы по этой песне:

Страница создана 03.03.2012
http://primanota.ru/paul-gilbert/rusty-old-boat-chords.htm
Привет, Гость.
Предлагаем пройти революционный курс по гитаре.
Подарок от PrimaNota.Ru, забирай!