PrimaNota.ru - самый крупный в мире бесплатный архив песенных текстов, аккордов, табулатур и нот


Paul Gilbert - I Cannot Tell A Lie - таба, видео

Регистрация Запомнить меня
Войти через:  Facebook Google Twitter Vk Yandex Mail.ru

Paul Gilbert - I Cannot Tell A Lie - таба, видео

Печатать
Просмотров: 208
artist- paul gilbert
song- i cannot tell a lie

NOTE: I HAVNT FINISHED THIS SONG BUT I WILL VERY SOON

intro/ main riff
(guitar 1)
|-------5-----------5----------------------------------|
|-----5---5-------5---5-----------10------------9------|
|---4-------4-------------------7-----7-------9---9----|
|---------------7--------7----9---------9---9-------9--|
|-4-----------5-------------7-------------7------------|
|------------------------------------------------------|

(guitar 2)

|--------------------------------------------------------------------------|
|-------17--17/19--17--------------------14--------------------------------|
|----14---------------14--------14---16------16/18---18br---16---------16/-|
|-14-------------------------14---------------------------------18--19-----|
|--------------------------------------------------------------------------|
|--------------------------------------------------------------------------|

|----------------------------------------10--12-----------16br--14------|
|-17--15h17p15-14-----17\-------------10---------10h12--------------17--|
|------------------16---------7--9/11-----------------------------------|
|-----------------------------------------------------------------------|
|-----------------------------------------------------------------------|
|-----------------------------------------------------------------------|

|-----------------------------------------------------------17--|
|----------------17--------------------------------14---15------|
|-14--16--16/18------18\16---14---9/11---14----16---------------|
|---------------------------------------------------------------|
|---------------------------------------------------------------|
|---------------------------------------------------------------|

|-------------------14/16--17--19--19b-------17b---17---17\--17--19--21--|
|-15p14---------17------------------------17-----------------------------|
|--------14h16-----------------------------------------------------------|
|------------------------------------------------------------------------|
|------------------------------------------------------------------------|
|------------------------------------------------------------------------|

|-21b-------21br--19---19\-|
|-------19-----------------|
|--------------------------|
|--------------------------|
|--------------------------|
|--------------------------|

IF YOU WANT ME TO SEND YOU A E-MAIL OF WHEN THUS TAB HAS BEEN UPDATED JUST LEAVE 
YOUR EMAIL ADDRESS
Добавлено: 14.03.2012
Другие материалы по этой песне:

Страница создана 14.03.2012
http://primanota.ru/paul-gilbert/i-cannot-tell-a-lie-chords.htm
Привет, Гость.
Предлагаем пройти революционный курс по гитаре.
Подарок от PrimaNota.Ru, забирай!