PrimaNota.ru - самый крупный в мире бесплатный архив песенных текстов, аккордов, табулатур и нот


Paul Gilbert - I Like Rock - таба, бас-таба, видео

Регистрация Запомнить меня
Войти через:  Facebook Google Twitter Vk Yandex Mail.ru

Paul Gilbert - I Like Rock - таба, бас-таба, видео

Печатать
Просмотров: 154
-------------------------------------------------------------------------------
                             I Like Rock - Paul Gilbert
-------------------------------------------------------------------------------
Tabbed by:fretman96
E-mail:

Tuning: Standard

[main riff]
e|---------------|----------------|
B|---------------|----------------|
G|---------------|----------x-7---|
D|---7-7-7-x-x---|-x-x-x-x--x-7---| x2
A|---7-7-7-x-x---|-x-x-x-x--x-5---|
E|---5-5-5-x-x---|-x-x-x-x--------|

e|--------------|
B|--------------|
G|---9-9-9-x-x--|
D|---9-9-9-x-x--|
A|---7-7-7-x-x--|
E|--------------|

[Main riff cont'd]

e|-------------------|----------------|----------------------|-----------------|------------|
B|-------------------|----------------|----------------------|-----------------|------------|
G|---x-x-x-x---x-7---|----------------|-----------11---x-9---|---------7-7-7---|------------|
D|---x-x-x-x---x-7---|---7-7-7--x-x---|----x-x-x--11---x-9---|---7--7--7-7-7---|---7-7-7-7--|
A|---x-x-x-x---x-5---|---7-7-7--x-x---|----x-x-x--9----x-7---|---7--7--5-5-5---|---7-7-7-7--|
E|-------------------|---5-5-5--x-x---|----x-x-x-------------|---5--5----------|---5-5-5-5--|

[Bridge 0:41]
e|----------------------|-------------------|
B|----------------------|---5-5-5-5-5-5-5---|
G|---7-7-7-7------------|---4-4-4-4-4-4-4---|
D|---7-7-7-7--7-7-7-2---|---2-2-2-2-2-2-2---| x2
A|---5-5-5-5--7-7-7-2---|-------------------|
E|------------5-5-5-0---|-------------------|


e|--------------|------------------|----------------------|-----------------------|
B|--------------|--------5---5-5---|----------------------|-----------------------|
G|---7-7--------|--------4---4-4---|---7-7-7-7------------|-----------------------|
D|---7-7--7-7---|---2-2--2---2-2---|---7-7-7-7--7-7-7-2---|-----------------------|
A|---5-5--7-7---|---2-2------------|---5-5-5-5--7-7-7-2---|-----------------------|
E|--------5-5---|---0-0------------|------------5-5-5-0---|---0--2-0--3-0--4-0----|

[Solo 1:01]
e|---5---|---5-5-5-5-5-5-5-5---|---5-5-5-------5-5-5----|
B|---5---|---5-5-5-5-5-5-5-5---|---5-5-5----5--5-5-5----|
G|-------|---------------------|----------7b9-----------|
D|-------|---------------------|------------------------| x2
A|-------|---------------------|------------------------|
E|-------|---------------------|------------------------|

e|---7-7-7-7-7-7-7-7---|---7-7-7-7-7-7-7-5---|---7-7-7-7-7b8-7b8-7b8-7b8---|---7b8-7b8-7b8-7b9v---|
B|---5-5-5-5-5-5-5-5---|---5-5-5-5-5-5-5-5---|-----------------------------|----------------------|
G|---------------------|---------------------|-----------------------------|----------------------|
D|---------------------|---------------------|-----------------------------|----------------------|
A|---------------------|---------------------|-----------------------------|----------------------|
E|---------------------|---------------------|-----------------------------|----------------------|

[solo cont'd]
e|---7-5-----7-5-----7-5-----7-5-------|---7-5-----7-5-----7-5-----7-5-------|
B|-------7-5-----7-5-----7-5-----7-5---|-------7-5-----7-5-----7-5-----7-5---|
G|-------------------------------------|-------------------------------------|
D|-------------------------------------|-------------------------------------|
A|-------------------------------------|-------------------------------------|
E|-------------------------------------|-------------------------------------|

e|---7b8-7-5-------------|---------------------|
B|-----------8-7-5-------|---------------------|
G|-----------------8-7---|---5-----------------|
D|-----------------------|-----7-5-7-----------|
A|-----------------------|---------------------|
E|-----------------------|---------------------|

[outro]
e|--------------------|---------------------|
B|--------------------|---------------------|
G|----------9---9-9---|-----------7--7--7---|
D|---7-7-7--9---9-9---|---7---7---7--7--7---| x2
A|---7-7-7--7---7-7---|---7---7---5--5--5---|
E|---5-5-5------------|---5---5-------------|

e|--------------------|-------------|-------------|-------------|
B|--------------------|-------------|-------------|-------------|
G|----------9---9-9---|---7-7-7-7---|---7-7-7-7---|---5-5-5-5---|
D|---7-7-7--9---9-9---|---7-7-7-7---|---7-7-7-7---|---5-5-5-5---|
A|---7-7-7--7---7-7---|---5-5-5-5---|---5-5-5-5---|---3-3-3-3---|
E|---5-5-5------------|-------------|-------------|-------------|

e|---------------------|---0----------|------------------------------|----------------------|
B|---------------------|---0----------|------------------------------|----------------------|
G|---5-5-5-5-5-5-5-5---|---0----------|---2--------------------------|----------------------|
D|---5-5-5-5-5-5-5-5---|---2----------|---2--------------------------|----------------------|
A|---3-3-3-3-3-3-3-3---|---0----------|---0--------------------------|----------------------|
E|---------------------|--------------|------------------------------|----------------------|

************************************

| /   slide up
| \   slide down
| h   hammer-on
| p   pull-off
| ~   vibrato
| +   harmonic
| x   Mute note
| b   Bend
| pb  Pre-bend
| br  Bend release
| pbr Pre-bend release
| brb Bend release bend

************************************
Добавлено: 04.11.2015
Другие материалы по этой песне:

Страница создана 28.02.2012
http://primanota.ru/paul-gilbert/i-like-rock-chords.htm
Привет, Гость.
Предлагаем пройти революционный курс по гитаре.
Подарок от PrimaNota.Ru, забирай!