PrimaNota.ru - самый крупный в мире бесплатный архив песенных текстов, аккордов, табулатур и нот


Pat Metheny - Message To A Friend - таба, видео

Регистрация Запомнить меня
Войти через:  Facebook Google Twitter Vk Yandex Mail.ru

Pat Metheny - Message To A Friend - таба, видео

Печатать
Просмотров: 105
Авторы музыки: Pat Metheny

		   Author/Artist: Pat Metheny

Title: Message To A Friend

Album: Beyond The Missouri Sky

Transcribed by: Matteo Baldanzi

Email: matteo_baldanzi@hotmail.com

 

This is my version of the song. I do it a little different from

Pat's version. After this part you can improvise, if you want to.

 

 

-3--3-|2---------|-7----|--------|5--8-|8--7--7-|------2--2-|------2----------

-5--0-|4-----6h7-|-3--5-|5--3-4h5|3--5-|5-------|5--2-----4-|----4---4--------

-5--0-|4---------|-4--4-|4--4----|2--5-|5--7----|4--3-----4-|--4-------4------

-5--2-|4---------|----5-|5--4----|---5-|--------|5--2-----4-|-----------------

-3--2-|2--0------|----3-|4--5----|-----|6--5----|4--4-----2-|2----------------

------|----------|-3----|--------|2--0-|--------|-----------|-----------------

               
                                                              

 

-------0--------2----3--|--10-|12-|7----------|---|------10-------7----|-8--7-

-----1--------3------0--|--12-|10-|8----10--8-|-5-|---8--12----8-----2-|------

---0--------2--------0--|--12-|11-|9--9-------|-4-|-9----12--9-------0-|------

----------0-------------|-----|---|-----------|-5-|------------------2-|------

-0----------------------|--10-|9--|-----------|-4-|---------------6--4-|------

-------------------3----|-----|---|0----------|---|------10------------|----8-

                                                                             

 

--------|------------|--12-10-10-10/12-7-|-0--2--3--7--3--0-|-3---|---|---|-0-

-10-8---|-5--5--8/12-|--7----------------|-1--3--5--8--5--1-|---5-|-3-|-4-|-0-

------0-|-5----------|--7----------------|-0--4--5--9--5--0-|---4-|-4-|---|-0-

--------|-5----------|-------------------|------------------|---5-|-5-|-4-|---

--------|------------|--9----------------|------------------|---4-|-5-|-6-|---

--------|-5----------|--7--------------0-|------------------|-----|---|---|-0-

                                                                             

 


     
Добавлено: 21.10.2013
Другие материалы по этой песне:

Страница создана 25.05.2012
http://primanota.ru/pat-metheny/message-to-a-friend-chords.htm
Привет, Гость.
Предлагаем пройти революционный курс по гитаре.
Подарок от PrimaNota.Ru, забирай!