PrimaNota.ru - самый крупный в мире бесплатный архив песенных текстов, аккордов, табулатур и нот


Paradise Lost - No Hope In Sight - таба, видео

Регистрация Запомнить меня
Войти через:  Facebook Google Twitter Vk Yandex Mail.ru

Paradise Lost - No Hope In Sight - таба, видео

Печатать
Просмотров: 267
Уроки эстрадного вокала в Санкт-Петербурге
Band: Paradise Lost
Album: The Plague Within
Song: No Hope In Sight
Tuning: 7 string down one step - A D G C F A D

Notes:
* Pre Verses: I play it with a long slide (9/12), but you could remove the slide and
              use the 8th fret on the high A string instead.

=============================================================================================================

Intro
Lead
D |-----------------|-----------------|-----------------|-----------------|
A |-----------------|-----------------|-----------------|-----------------|
F |-----------------|-----------------|-----------------|-----------------|
C |---9---7---5---4-|---9---7---5---4-|---9---7---5---4-|---9---7---5---4-|
G |-----------------|-----------------|-----------------|-----------------|
D |-0---0---0---0---|-0---0---0---0---|-0---0---0---0---|-0---0---0---0---|
A |-----------------|-----------------|-----------------|-----------------|

Intro part II x2
         "No hope in sight...       daylight before them dies"
Lead
D |------------------------------|------------------------------|
A |------------------------------|------------------------------|
F |------------------------------|------------------------------|
C |---9---7---5---4---2----------|---9---7---5---4---5---4---5v-|
G |-----------------------5---7v-|------------------------------|
D |-0---0---0---0---0---0---0----|-0---0---0---0---0---0---0----|
A |------------------------------|------------------------------|

Rhythm
D |-------------------------------------------------------------|
A |-------------------------------------------------------------|
F |-------------------------------------------------------------|
C |-------------------------------------------------------------|
G |-2---(2)---(2)------------------7---(7)---(7)----------------|
D |-0---(0)---(0)--------------xx--5---(5)---(5)----------------|
A |----------------------------xx-------------------------------|


      "Enshrine the horrified...   no hope in sight"
Lead
D |------------------------------|------------------------------|
A |------------------------------|------------------------------|
F |------------------------------|------------------------------|
C |---9---7---5---4---2----------|---9---7---5---4---5---4---5v-|
G |-----------------------5---7v-|------------------------------|
D |-0---0---0---0---0---0---0----|-0---0---0---0---0---0---0----|
A |------------------------------|------------------------------|

Rhythm
D |-------------------------------------------------------------|
A |-------------------------------------------------------------|
F |-------------------------------------------------------------|
C |-------------------------------------------------------------|
G |---------------------------------------------------3-5---5-7-|
D |-xx-3---(3)---(3)------------xx-5---(5)---(5)------x-x---3-5-|
A |-xx-1---(1)---(1)------------xx-3---(3)---(3)------1-3-------|


Pre Verse @0:57
Lead x2
D |------------------------------------------------------------|
A |-8---8---8---8---7---7---7---7-------------12--------10-8---|
F |---9---9---9---9---9---9---9---9-7^9/12--9---9-7^9/12-----9-|
C |------------------------------------------------------------|
G |------------------------------------------------------------|
D |------------------------------------------------------------|
A |------------------------------------------------------------|

Rhythm x2
D |-----------------------------------------------------------|
A |-----------------------------------------------------------|
F |-----------------------------------------------------------|
C |-----------------------------------------------------------|
G |-----------------------------------------------------------|
D |-0-0-0-0-00/5-5-5-5-5-55/8-8-8-8-8-88/10-10-10-10-10/7-7-7-|
A |-----------------------------------------------------------|


Verse 1
    "Have I prayed...   as a slave of lasting cries"   
 
Lead and Rhythm x2
D |-------------------------------------------------------------------------------------|
A |-------------------------------------------------------------------------------------|
F |-------------------------------------------------------------------------------------|
C |-------------------------------------------------------------------------------------|
G |--2-2-2-2-2-2-2-2-2-7-7-7-7-7-7-7-7-10-10-10-10-10-10-10-10-12-12-12-12-12-12-9-9-9--|
D |--0-0-0-0-0-0-0-0-0-5-5-5-5-5-5-5-5-8--8--8--8--8--8--8--8--10-10-10-10-10-10-7-7-7--|
A |--------------------5-5-5-5-5-5-5-5-8--8--8--8--8--8--8--8--10-10-10-10-10-10-7-7-7--|


Pre Verse @1:43
Lead x2
D |-------------------------------------------------------------|
A |-8---8---8---8---7---7---7---7-------------12--------10-8----|
F |---9---9---9---9---9---9---9---9-7^9/12--9---9-7^9/12-----11-|
C |-------------------------------------------------------------|
G |-------------------------------------------------------------|
D |-------------------------------------------------------------|
A |-------------------------------------------------------------|

Rhythm x2
D |-----------------------------------------------------------|
A |-----------------------------------------------------------|
F |-----------------------------------------------------------|
C |-----------------------------------------------------------|
G |-----------------------------------------------------------|
D |-0-0-0-0-00/5-5-5-5-5-55/8-8-8-8-8-88/10-10-10-10-10/7-7-7-|
A |-----------------------------------------------------------|


Verse 2
    "Cold embrace...        is the savior in disguise..."   
 
Lead and Rhythm x2
D |-------------------------------------------------------------------------------------|
A |-------------------------------------------------------------------------------------|
F |-------------------------------------------------------------------------------------|
C |-------------------------------------------------------------------------------------|
G |--2-2-2-2-2-2-2-2-2-7-7-7-7-7-7-7-7-10-10-10-10-10-10-10-10-12-12-12-12-12-12-9-9-9--|
D |--0-0-0-0-0-0-0-0-0-5-5-5-5-5-5-5-5-8--8--8--8--8--8--8--8--10-10-10-10-10-10-7-7-7--|
A |--------------------5-5-5-5-5-5-5-5-8--8--8--8--8--8--8--8--10-10-10-10-10-10-7-7-7--|


Post Verse
       "It's a battle...       as the years start to fade"
       "No hope in sight...

Lead
D |------------------------------|------------------------------|
A |------------------------------|------------------------------|
F |------------------------------|------------------------------|
C |---9---7---5---4---2----------|---9---7---5---4---5---4---5v-|
G |-----------------------5---7v-|------------------------------|
D |-0---0---0---0---0---0---0----|-0---0---0---0---0---0---0----|
A |------------------------------|------------------------------|

Rhythm
D |-------------------------------------------------------------|
A |-------------------------------------------------------------|
F |-------------------------------------------------------------|
C |-------------------------------------------------------------|
G |-2---(2)---(2)------------------7---(7)---(7)----------------|
D |-0---(0)---(0)--------------xx--5---(5)---(5)----------------|
A |----------------------------xx-------------------------------|


       "It's a battle...       as the years start to fade"
Lead
D |------------------------------|------------------------------|
A |------------------------------|------------------------------|
F |------------------------------|------------------------------|
C |---9---7---5---4---2----------|---9---7---5---4---5---4---5v-|
G |-----------------------5---7v-|------------------------------|
D |-0---0---0---0---0---0---0----|-0---0---0---0---0---0---0----|
A |------------------------------|------------------------------|

Rhythm
D |-------------------------------------------------------------|
A |-------------------------------------------------------------|
F |-------------------------------------------------------------|
C |-------------------------------------------------------------|
G |---------------------------------------------------3-5---5-7-|
D |-xx-3---(3)---(3)------------xx-5---(5)---(5)------x-x---3-5-|
A |-xx-1---(1)---(1)------------xx-3---(3)---(3)------1-3-------|


Break
Lead x8
D |-------------------------------|
A |-------------------------------|
F |-------------------------------|
C |---9-7---7---------------------|
G |-7--------10---10-9-10-9--9-7v-|
D |------------------------10-----|
A |-------------------------------|

Rhythm
Each chord is played for one play of the Lead above
D |------------------------------------|
A |------------------------------------|
F |------------------------------------|
C |------------------------------------|
G |--2-------7-------10------12--------|
D |--0-------5-------8-------10--------|
A |----------5-------8-------10--------|


Post Break
Lead Solo x2
D |----------19-----------------17-----------------------19----------------17---15---|
A |-17-15^17---17~---(17)-15^17---17-15-17~---(17)-15^17---17~--(17)-15^17---17---17-|
F |----------------------------------------------------------------------------------|
C |----------------------------------------------------------------------------------|
G |----------------------------------------------------------------------------------|
D |----------------------------------------------------------------------------------|
A |----------------------------------------------------------------------------------|

Rhythm x2
D |---------------------------------------------------------------------------------|
A |---------------------------------------------------------------------------------|
F |---------------------------------------------------------------------------------|
C |---------------------------------------------------------------------------------|
G |--2--------------(2)/7--------------(7)/10-------------(12)/12---------(12)/9----|
D |--0--------------(0)/5--------------(5)/8---------------(8)/10---------(10)/7----|
A |----------------------------------------8---------------(8)/10---------(10)/7----|

Intro Reprise
Lead
D |-----------------|-----------------|-----------------|-----------------|
A |-----------------|-----------------|-----------------|-----------------|
F |-----------------|-----------------|-----------------|-----------------|
C |---9---7---5---4-|---9---7---5---4-|---9---7---5---4-|---9---7---5---4-|
G |-----------------|-----------------|-----------------|-----------------|
D |-0---0---0---0---|-0---0---0---0---|-0---0---0---0---|-0---0---0---0---|
A |-----------------|-----------------|-----------------|-----------------|


Intro Reprise part II x2
Lead
D |------------------------------|------------------------------|
A |------------------------------|------------------------------|
F |------------------------------|------------------------------|
C |---9---7---5---4---2----------|---9---7---5---4---5---4---5v-|
G |-----------------------5---7v-|------------------------------|
D |-0---0---0---0---0---0---0----|-0---0---0---0---0---0---0----|
A |------------------------------|------------------------------|

Rhythm
D |-------------------------------------------------------------|
A |-------------------------------------------------------------|
F |-------------------------------------------------------------|
C |-------------------------------------------------------------|
G |--------------------------------7---(7)---(7)----------------|
D |-7---(7)---(7)--------------xx--5---(5)---(5)----------------|
A |-5---(5)---(5)--------------xx-------------------------------|


Lead
D |------------------------------|------------------------------|
A |------------------------------|------------------------------|
F |------------------------------|------------------------------|
C |---9---7---5---4---2----------|---9---7---5---4---5---4---5v-|
G |-----------------------5---7v-|------------------------------|
D |-0---0---0---0---0---0---0----|-0---0---0---0---0---0---0----|
A |------------------------------|------------------------------|

Rhythm
D |-------------------------------------------------------------|
A |-------------------------------------------------------------|
F |-------------------------------------------------------------|
C |-------------------------------------------------------------|
G |---------------------------------------------------3-5---5-7-|
D |-xx-3---(3)---(3)------------xx-5---(5)---(5)------x-x---3-5-|
A |-xx-1---(1)---(1)------------xx-3---(3)---(3)------1-3-------|

Добавлено: 24.10.2015
Другие материалы по этой песне:

Страница создана 24.10.2015
http://primanota.ru/paradise-lost/no-hope-in-sight-chords.htm
Привет, Гость.
Предлагаем пройти революционный курс по гитаре.
Подарок от PrimaNota.Ru, забирай!