PrimaNota.ru - самый крупный в мире бесплатный архив песенных текстов, аккордов, табулатур и нот


Paradise Lost - Honesty In Death - таба, видео

Регистрация Запомнить меня
Войти через:  Facebook Google Twitter Vk Yandex Mail.ru

Paradise Lost - Honesty In Death - таба, видео

Печатать
Просмотров: 246
Авторы музыки: Gregor Mackintosh
Авторы текста: Nick Holmes
*Off the Tragic Idol LP
**Tuning is in ADGCFAD
***Some leads are missing, but I think there is enough here to get players going

Intro/Chorus - Rhythm 
D| --------------------------------------| 
A| --------------------------------------| 
F| --------------------------------------| 
C| ------7/9/11/9---7/9/11~---7~--7/9/4--| 
G| -9--9-x-x- x-x---x-x- x----x---x-x-x--| 
D| -x--x-5/7/ 9/7---5/7/ 9~---5~--5/7/2--| 
A| -7--7---------------------------------| 

Intro - Lead                                         
D| ---------------9-9-9-7----------12^9-----------| 
A| -------------------------10--7~------12^10-----| 
F| -11~--11~--11~------------------------------11-| 
C| -----------------------------------------------| 
G| -----------------------------------------------| 
D| -----------------------------------------------| 
A| -----------------------------------------------| 

Verse - Rhythm 
D| ------------------------------------| 
A| ------------------------------------| 
F| ------------------------------------| 
C| ------------------------------------| 
G| ------------------------------------| 
D| -2----5--5/7/9--9--4--4/5/2---------| 
A| -0----3--3/5/7--7--2--2/3/0---------| 

Verse - Lead                                   
D| ----------------------------------| 
A| ---7-8-7--------------------------| 
F| -7-------9-7-6-7-6--------7---6---| 
C| -------------------9--9-9---9-----| 
G| ----------------------------------| 
D| ----------------------------------| 
A| ----------------------------------| 

Pre Chorus - Rhythm *pulse and repeat 
D| -------------------------------------| 
A| -------------------------------------| 
F| -------------------------------------| 
C| -5----4------------------------------| 
G| -x----x----2-------------------------| 
D| -3----2----x-------------------------| 
A| -----------0-------------------------| 

Pre Chorus - Part 1 Lead                                         
D| ----------14---15---14---12---------------------| 
A| -12-12-12---12---12---12---12-14-12 14^15^14-12-| 
F| ------------------------------------------------| 
C| ------------------------------------------------| 
G| ------------------------------------------------| 
D| ------------------------------------------------| 
A| ------------------------------------------------| 

Pre Chorus - Part 2 Lead 
*there are more notes than this but you can get the feel                               
D| -------------------------------------------| 
A| -12-12-12-15^12-12-14^12-15-12-14-12-------| 
F| -------------------------------------------| 
C| -------------------------------------------| 
G| -------------------------------------------| 
D| -------------------------------------------| 
A| -------------------------------------------| 

Pre Chorus - Part 3 Lead *still working                         
D| ----------------------------------------------| 
A| ----------------------------------------------| 
F| -/12~--14-11~--11-12-9~--9-11-7~--7-9-6~------| 
C| -------------------------------------------9--| 
G| ----------------------------------------------| 
D| ----------------------------------------------| 
A| ----------------------------------------------| 

Chorus - Rhythm 
D| -------------------------------------------| 
A| -------------------------------------------| 
F| -------------------------------------------| 
C| -------------------------------------------| 
G| -2-4-5-7--7----10---2----5----7----10---2--| 
D| -x-x-x-x--x----x----x----x----x----x----x--| 
A| -0-2-3-5--5----8----0----3----5----8----0--| 
   build up | start of main chorus part 


Solo - Rhythm 
Repeat five times with the last time being palm muted 
D| ------------------------| 
A| ------------------------| 
F| ------------------------| 
C| ------------------------| 
G| ------------------------| 
D| --4--7--9--12-///-------| 
A| --2--5--7--10-///-------| 
                 *pick slide 


Outro - Rhythm *pulse - not every chord count is given 
D| ---------------------| 
A| ---------------------| 
F| ---------------------| 
C| ---------------------| 
G| -9----5----2----4----| 
D| -x----x----x----x----| 
A| -7----3----0----2----| 

Outro - Lead 
Same as the Intro 
Добавлено: 01.07.2013
Другие материалы по этой песне:
  • Аккорды и текст

Страница создана 01.07.2013
http://primanota.ru/paradise-lost/honesty-in-death-chords.htm
Привет, Гость.
Предлагаем пройти революционный курс по гитаре.
Подарок от PrimaNota.Ru, забирай!