PrimaNota.ru - самый крупный в мире бесплатный архив песенных текстов, аккордов, табулатур и нот


Paradise Lost - Another Desire - текст песни, таба, видео

Регистрация Запомнить меня
Войти через:  Facebook Google Twitter Vk Yandex Mail.ru

Paradise Lost - Another Desire - текст песни, таба, видео

Печатать
Просмотров: 283
Уроки эстрадного вокала в Санкт-Петербурге
Авторы: Gregor Mackintosh, Nick Holmes

Author/Artist: Paradise Lost
Title: Master of misrule
Album: The singles collection 
Transcribed by: Nagy Krisztián
Email: krisznagy@netposta.net


Riff 1:
B---1---1-1--x----------------------------3-3-3-3-3-3--
G---2---2-2--x----------------------------2-2-2-2-2-2--
D---2---2-2--x----5--x--5---4--5--4-------0-0-0-0-0-0--
A---0---0-0--x----5--x--5------------7-----------------
E-----------------3--x--3------------------------------

Riff 2:
B-----5-5---3---3--5-----------------
G--4------4---4----------------------
D------------------------------------

Riff 3:
B------0-0-----0-0----0-0-----0-0-0-0----------
G---2------------------------------------------
D---2-------2-------0-------2------------------
A---0-------3-------2-------2------------------
E-----------0-------3-------0------------------

Riff 4:          
G----7--5-----------7--5------7--5-----------
D---------7--------------7---------7---------
A--------------------------------------------
             
Riff 5:						       	
G----5--5-5--4----------5h7-7b-5-------------------------
D---------------5-5h7p5---------------------------------
A---------------------------------------------

Riff 6:						       	
G----7h9-9-999------------
D-------------------------
A-------------------------

Intro:
Riff 1

Verse 1:
Riff 2		Living as a... 

Chorus 1:
Riff 3		They lives...
Riff 1		

Verse 2:
Riff 3		Living as a...

Riff 1

Riff 2			

Chorus 2:
Riff 3
Riff 1

Break

Interlude part:
Riff 4
Riff 5

Ending:
Riff 6
     
Добавлено: 01.08.2013
Другие материалы по этой песне:
  • Аккорды и текст

Страница создана 04.05.2012
http://primanota.ru/paradise-lost/another-desire-chords.htm
Привет, Гость.
Предлагаем пройти революционный курс по гитаре.
Подарок от PrimaNota.Ru, забирай!