PrimaNota.ru - самый крупный в мире бесплатный архив песенных текстов, аккордов, табулатур и нот


Ozzy Osbourne - No More Tears - текст песни, таба, бас-таба, драм-таба, видео

Регистрация Запомнить меня
Войти через:  Facebook Google Twitter Vk Yandex Mail.ru

Ozzy Osbourne - No More Tears - текст песни, таба, бас-таба, драм-таба, видео

Печатать
Просмотров: 514
Авторы: Mike Inez, Ozzy Osbourne, John Purdell, Zakk Wylde, Randy Castillo

Ozzy Osbourne
No More Tears

doompers7491
doompers7491@yahoo.com

Guitar Solo
   ^^^^^                     ^^         ^^^^^                   ^^^^^^
-----------------------------------------------------------------------|
----------------10---B(full)------------------B(full)----P---B---------|B(full)
--11----11--12------12------12--11--9--10----12-----(12)10--12-12------|
-----------------------------------------------------------------------|
-----------------------------------------------------------------------|
-----------------------------------------------------------------------|

^^^^^^     ^^^^              ^^^^^^^            ^^^^^^   B(full)   B
-----------------------------B(full)-B(full)----B(1.5)--15(15)13--15--|
--B(full)---------------10--13------15(15)13---15---------------------|
-12(12)---11----11--12------------------------------------------------|
----------------------------------------------------------------------|
----------------------------------------------------------------------|
----------------------------------------------------------------------|

   B     B   B    B   B                 ^^^^
--15----15--15---15--15(15)13-14----x---B---10-----------10--B--------|
---------------------------------15-x--13------13-10--B-----12(12)----|
-----------------------------------------------------12--------10-----|
------------------------------------------------------------------12--|
----------------------------------------------------------------------|
----------------------------------------------------------------------|

                                                ^^^^^
---------B(.25)-------------------------------------------------------|
-12-----10--------------P--P--------12----10-------------P--P------12-|
-12-----10------------13-12-10------12----10B(.5)------13-12-10----12-|
----12-----12-10---12----------12------12------12---------------12----|
----------------------------------------------------------------------|
----------------------------------------------------------------------|

                                 ^^^^^                      (.25)
---------------------------------B----10---P--------10---P---B--|
------------12----10------------13-------13-10--B------13-10-8--|
-12-10------12----10B(.5)----------------------12---------------|
-------12------12---------12-10---------------------------------|
----------------------------------------------------------------|
----------------------------------------------------------------|

                           B    B                   B(.5) B    B(.5) B
--------------------------15---15(15)--13----15----13----15---13----15-|
-10--B---P-------------------------------(15)--(15)--(15)--(15)---(15--|
----12(12)10---12-10---------------------------------------------------|
---------------------12------------------------------------------------|
-----------------------------------------------------------------------|
-----------------------------------------------------------------------|

  B      B(.5) ^^^^^
-15(15)-13-----------13-10-13-10-------13-10-13-10-------13-10-13-10------|
--------------15----------------13-10-------------13-10-------------13-10-|
--------------------------------------------------------------------------|
--------------------------------------------------------------------------|
--------------------------------------------------------------------------|
--------------------------------------------------------------------------|


-13-10-13-10-------15-13-15-13-------15-13-15-13-------15-13-15-13------|
------------13-10-------------15-13-------------15-13-------------15-13-|
------------------------------------------------------------------------|
------------------------------------------------------------------------|
------------------------------------------------------------------------|
------------------------------------------------------------------------|


-15-13-15-13-------17-15-17-15-------17-15-17-15-------17-15-17-15------|
------------15-13-------------18-15-------------18-15-------------18-15-|
------------------------------------------------------------------------|
------------------------------------------------------------------------|
------------------------------------------------------------------------|
------------------------------------------------------------------------|


-17-15-17-15-------18-15-13--18-15-13--18-15-13--18-15-13--20-17-15---|
------------18-15----------15--------15--------15--------15--------17-|
----------------------------------------------------------------------|
----------------------------------------------------------------------|
----------------------------------------------------------------------|
----------------------------------------------------------------------|

                                B^^^
-20-17-15--20-17-15--20-17-15--20---(20)\-----------------------------|
---------17--------17--------17---------------------------------------|
----------------------------------------------------------------------|
----------------------------------------------------------------------|
----------------------------------------------------------------------|
----------------------------------------------------------------------|
Добавлено: 06.05.2012
Другие материалы по этой песне:

Страница создана 22.02.2012
http://primanota.ru/ozzy-osbourne/no-more-tears-chords.htm
Привет, Гость.
Предлагаем пройти революционный курс по гитаре.
Подарок от PrimaNota.Ru, забирай!