PrimaNota.ru - самый крупный в мире бесплатный архив песенных текстов, аккордов, табулатур и нот


Ozzy Osbourne - Paranoid Live - таба, видео

Регистрация Запомнить меня
Войти через:  Facebook Google Twitter Vk Yandex Mail.ru

Ozzy Osbourne - Paranoid Live - таба, видео

Печатать
Просмотров: 201
			 Paranoid - ozzy osbourne live with randy rhoads

Tabbed by: #1 led zep fan
Email: rexmac@mntarea.net

Tuning: standard
 Listen to the song for the timing I tabbed it out as best as I could this is my first
so take it easy. I don't really use my email so just post any corrections on my page. I'm
including the time when stuff happens so you don't get lost because that happens to me 
the time.

	0:07-0:17
e|---------------------------------------------------------------------|
B|---------------------------------------------------------------------|
G|---------------------------------------------------------------------|
D|------------------------------12h14-------12h14----------------------|
A|---12h14—-12h14—-12h14—-12h14-------12h14----------------------------|
E|---12-----12-----12--------------------------------------------------|
 Repeat that times 4
	0:18-0:23	     xxxxxxxxxxxxxxxxxxxx
e|---------------------------------------------------------------------|
B|---------------------------------------------------------------------|
G|----------------------------------------------------------12h13p12---|
D|---------------------12h14-----------------------12------------------|
A|##14-##14-##14—12h14-------12121212121212121212--10-12-14------------|
E|##12-##12-##12-------------10101010101010101010-----10-12------------|
  This part is kinda weird you place your index finger over the 12th fret low E string
the fret divider or whatever its called and your pinky over the 14th fret A string. Don't
down. Let your fingers rest on the string. Like a damp note without the palm muting. 
the symbol I'm using for that #. So in case you didn't understand its ½ natural
½ weird damp note thing I described earlier if you don't understand post it on my page 
ill send you a vid.
	0:24-0:32             xxxxxxxxxxxxxxxxxxx
e|---------------------------------------------------------------------|
B|---------------------------------------------------------------------|
G|---------------------------------------------------------------------|
D|---------------------12h14-----------------------12------------7-9---|
A|##14-##14-##14—12h14-------12121212121212121212--10-12-14---9b—5-7---|
E|##12-##12-##12-------------10101010101010101010-----10-12---9b-------|

	0:33-0:40
e|--------?------------------------------------------------------------|
B|--------?------------------------------------------------------------|
G|--------?------------------------------------------------------------|
D|--------?------------7--9--------------------------------------------|
A|--9b----?---9b-------5--7—-9b----------------------------------------|
E|--9b----?---9b-7\0---------9b—--15\\0--------------------------------|
  At 0:34 there is a pinch harmonic screechy thing but I'm not sure what it is. Here's
symbol for that.?

	0:41-0:46            xxxxxxxxxxxxxxxxxxxx
e|---------------------------------------------------------------------|
B|---------------------------------------------------------------------|
G|-----------------------------------------------------------7h9-------|
D|---------------------12h14-----------------------12--------7---------|
A|##14-##14-##14—12h14-------12121212121212121212--10-12-14------------|
E|##12-##12-##12-------------10101010101010101010-----10-12------------|

	0:47-0:51             xxxxxxxxxxxxxxxxxxx
e|---------------------------------------------------------------------|
B|---------------------------------------------------------------------|
G|---------------------------------------------------------------------|
D|---------------------12h14-----------------------12------------------|
A|##14-##14-##14—12h14-------12121212121212121212--10-12-14------------|
E|##12-##12-##12-------------10101010101010101010-----10-12------------|
	0:52-1:01
e|---------------------------------------------------------------------|
B|-----------15~-------------------------------------------------------|
G|---------------------------------------------------------------------|
D|---------------------------------------------------------------------|
A|----12/14-------14\12---12/14—9tr10---14\12--------------------------|
E|----10/12-------12\10---10/12---------12\10--------------------------|
	1:02-1:08             xx xx xx xx xx xx
e|---------------------------------------------------------------------|
B|-----------------------------------------------------------12~-------|
G|---------------------------------------------------------------------|
D|---------------------12h14-----------------------12------------------|
A|##14-##14-##14—12h14-------12121212121212121212--10-12-14------------|
E|##12-##12-##12-------------10101010101010101010-----10-12------------|

	1:09-1:14             xx xx xx xx xx xx
e|---------------------------------------------------------------------|
B|----------------------------------------------------------12h13p12---|
G|---------------------------------------------------------------------|
D|---------------------12h14-----------------------12------------------|
A|##14-##14-##14—12h14-------12121212121212121212--10-12-14------------|
E|##12-##12-##12-------------10101010101010101010-----10-12------------|

	1:15-1:19             xxxxxxxxxxxxxxxxxxx
e|----------------------------------------------------------------------|
B|----------------------------------------------------------------------|
G|----------------------------------------------------------------------|
D|---------------------12h14-----------------------12-------------------|
A|##14-##14-##14—12h14-------12121212121212121212--10-12-14—14\12s------|
E|##12-##12-##12-------------10101010101010101010-----10-12—12\10s------|


	1:20-1:25             xxxxxxxxxxxxxxxxxxx
e|---------------------------------------------------------------------|
B|---------------------------------------------------------------------|
G|---------------------------------------------------------------------|
D|---------------------12h14-----------------------12------------------|
A|##14-##14-##14—12h14-------12121212121212121212--10-12-14------------|
E|##12-##12-##12-------------10101010101010101010-----10-12------------|

1:26-1:46 one of the best solos I've ever heard and it is a total shame I don't have the
to tab it for you. I know that sucks and is probably the whole reason you looked at
tab. sorry please forgive me; here's the rest of the tab.


	1:47-1:53             xx xx xx xx xx xx
e|---------------------------------------------------------------------|
B|---------------------------------------------------------------------|
G|---------------------------------------------------------------------|
D|---------------------12h14-----------------------12------------------|
A|##14-##14-##14—12h14-------12121212121212121212--10-12-14------------|
E|##12-##12-##12-------------10101010101010101010-----10-12------------|

	1:54-1:58             xx xx xx xx xx xx
e|---------------------------------------------------------------------|
B|---------------------------------------------------------------------|
G|-------------------------------------------------12------------------|
D|---------------------12h14-----------------------10-12-14------------|
A|##14-##14-##14—12h14-------12121212121212121212-----10-12------------|
E|##12-##12-##12-------------10101010101010101010----------------------|

	1:59-2:04             xxxxxxxxxxxxxxxxxxx
e|---------------------------------------------------------------------|
B|------------------------------------------------------------19b20----|
G|---------------------------------------------------------------------|
D|---------------------12h14-----------------------12------------------|
A|##14-##14-##14—12h14-------12121212121212121212--10-12-14------------|
E|##12-##12-##12-------------10101010101010101010-----10-12------------|

	2:05-2:09             xxxxxxxxxxxxxxxxxxx
e|---------------------------------------------------------------------|
B|---------------------------------------------------------------------|
G|---------------------------------------------------------------------|
D|---------------------12h14-----------------------12------------------|
A|##14-##14-##14—12h14-------12121212121212121212--10-12-14------------|
E|##12-##12-##12-------------10101010101010101010-----10-12------------|
	2:10-2:16
e|---------------------------------------------------------------------|
B|-----------------19b20-19b20-19b20-----------------------------------|
G|---------------------------------------------------------------------|
D|------7--9-----------------------------------------------------------|
A|-9b---5--7---9b------------------------------------------------------|
E|-9b----------9b------------------------------------------------------|

	2:17-2:21
e|---------------------------------------------------------------------|
B|---------------------------------------------------------------------|
G|---------------------------------------------------------------------|
D|------7--9-----------------------------------------------------------|
A|-9b---5--7---9b---2//14b17-------------------------------------------|
E|-9b----------9b------------------------------------------------------|

	2:22-2:27             xx xx xx xx xx xx
e|---------------------------------------------------------------------|
B|----------------------------------------------------------12h13p12---|
G|---------------------------------------------------------------------|
D|---------------------12h14-----------------------12------------------|
A|##14-##14-##14—12h14-------12121212121212121212--10-12-14------------|
E|##12-##12-##12-------------10101010101010101010-----10-12------------|


	2:28-2:32             xx xx xx xx xx xx
e|---------------------------------------------------------------------|
B|---------------------------------------------------------------------|
G|---------------------------------------------------------------------|
D|---------------------12h14-----------------------12------------------|
A|##14-##14-##14—12h14-------12121212121212121212--10-12-14------------|
E|##12-##12-##12-------------10101010101010101010-----10-12------------|

	2:33-2:38             xx xx xx xx xx xx
e|---------------------------------------------------------------------|
B|---------------------------------------------------------------------|
G|-------------------------------------------------12------------------|
D|---------------------12h14-----------------------12-12-14------------|
A|##14-##14-##14—12h14-------12121212121212121212--10-12-14------------|
E|##12-##12-##12-------------10101010101010101010-----10-12------------|

	2:39-2:43
e|---------------------------------------------------------------------|
B|---------------------------------------------------------------------|
G|---------------14--16--14------------------------12------------------|
D|---------------12--14--12------------------------10-12-14------------|
A|##14-##14-##14—------------12121212121212121212--10-10-12------------|
E|##12-##12-##12-------------10101010101010101010-----10-12------------|

Thanks for looking at this tab it took a long time so please, PLEASE rate.
key
p=pull off
h=hammer on
tr=trill
x=palm mute
b=bend
\=slide down
/=slide up
?=dont know
~=vibrato
Добавлено: 06.05.2012
Другие материалы по этой песне:

Страница создана 04.05.2012
http://primanota.ru/ozzy-osbourne/paranoid-live-chords.htm
Привет, Гость.
Предлагаем пройти революционный курс по гитаре.
Подарок от PrimaNota.Ru, забирай!