PrimaNota.ru - самый крупный в мире бесплатный архив песенных текстов, аккордов, табулатур и нот


Overkill - Nothing To Die For - текст песни, таба, бас-таба, видео

Регистрация Запомнить меня
Войти через:  Facebook Google Twitter Vk Yandex Mail.ru

Overkill - Nothing To Die For - текст песни, таба, бас-таба, видео

Печатать
Просмотров: 100
E||-------------------|--------------------------|---------------------------|
B||-------------------|--------------------------|---------------------------|
G||-------------------|--------------------9-----|--------------------10-----|
D||-------------------|--8-----8-----8-----------|--8-----8-----8------------|
A||----------------7--|-----7-----7-----7-----7--|-----7-----7-----7------7--|
E||-------------------|--------------------------|---------------------------|


--------------------------|--------------------------|--------------------------|
--------------------------|--------------------------|--------------------------|
--------------------9-----|--------------------------|--------------------9-----|
--8-----8-----8-----------|--8--9--8-----7-----6-----|--8-----8-----8-----------|
-----7-----7-----7-----7--|-----------9-----8-----7--|-----7-----7-----7-----7--|
--------------------------|--------------------------|--------------------------|

---------------------------|--------------------------|---------------------------|
---------------------------|--------------------------|---------------------------|
--------------------10-----|--------------------9-----|--9-------------10---------|
--8-----8-----8------------|--8-----8-----8-----------|--9------9------10---------|
-----7-----7-----7------7--|-----7-----7-----7-----7--|--7------9------8-------7--|
---------------------------|--------------------------|---------7-----------------|


--------------------------|---------------------------|--------------------------|
--------------------------|---------------------------|--------------------------|
--------------------9-----|--------------------10-----|--------------------9-----|
--8-----8-----8-----------|--8-----8-----8------------|--8-----8-----8-----------|
-----7-----7-----7-----7--|-----7-----7-----7------7--|-----7-----7-----7-----7--|
--------------------------|---------------------------|--------------------------|

--------------------------|--------------------------|---------------------------|
--------------------------|--------------------------|---------------------------|
--------------------------|--------------------9-----|--------------------10-----|
--8--9--8-----7-----6-----|--8-----8-----8-----------|--8-----8-----8------------|
-----------9-----8-----7--|-----7-----7-----7-----7--|-----7-----7-----7------7--|
--------------------------|--------------------------|---------------------------|

--------------------------|---------------------------|----------------------|
--------------------------|--9------------------------|----------------------|
--------------------9-----|--9------------------------|----------------------|
--8-----8-----8-----------|--9------9------10---------|----------------------|
-----7-----7-----7-----7--|--7------9------8-------7--|--8--10--8--7---------|
--------------------------|---------7-----------------|---------------10--8--|

----------------------------|----------------------|-----------||
----------------------------|----------------------|-----------||
----------------------------|----------------------|-----------||
----------------------------|--10------7------9----|-----------||
--8--7--8--10--8--7---------|--8-------5------7----|--------7--||
---------------------10--8--|--8-------5------7----|-----------||

--------------------------|---------------------------|--------------------------|
--------------------------|---------------------------|--------------------------|
--------------------9-----|--------------------10-----|--------------------9-----|
--8-----8-----8-----------|--8-----8-----8------------|--8-----8-----8-----------|
-----7-----7-----7-----7--|-----7-----7-----7------7--|-----7-----7-----7-----7--|
--------------------------|---------------------------|--------------------------|

--------------------------|--------------------------|---------------------------|
--------------------------|--------------------------|---------------------------|
--------------------------|--------------------9-----|--------------------10-----|
--8--9--8-----7-----6-----|--8-----8-----8-----------|--8-----8-----8------------|
-----------9-----8-----7--|-----7-----7-----7-----7--|-----7-----7-----7------7--|
--------------------------|--------------------------|---------------------------|


--------------------------|---------------------------|--------------------------|
--------------------------|---------------------------|--------------------------|
--------------------9-----|--9-------------10---------|--------------------9-----|
--8-----8-----8-----------|--9------9------10---------|--8-----8-----8-----------|
-----7-----7-----7-----7--|--7------9------8-------7--|-----7-----7-----7-----7--|
--------------------------|---------7-----------------|--------------------------|

---------------------------|--------------------------|--------------------------|
---------------------------|--------------------------|--------------------------|
--------------------10-----|--------------------9-----|--------------------------|
--8-----8-----8------------|--8-----8-----8-----------|--8--9--8-----7-----6-----|
-----7-----7-----7------7--|-----7-----7-----7-----7--|-----------9-----8-----7--|
---------------------------|--------------------------|--------------------------|

--------------------------|---------------------------|--------------------------|
--------------------------|---------------------------|--------------------------|
--------------------9-----|--------------------10-----|--------------------9-----|
--8-----8-----8-----------|--8-----8-----8------------|--8-----8-----8-----------|
-----7-----7-----7-----7--|-----7-----7-----7------7--|-----7-----7-----7-----7--|
--------------------------|---------------------------|--------------------------|

----------------------||---------------------------|--------------------------|
--9-------------------||---------------------------|--------------------------|
--9-------------------||*--------12----------10----|--------------------------|
--9------9------10----||*--------12----------10----|--------10----9-------10--|
--7------9------8-----||---------10----------8-----|--------8-----7-------8---|
---------7------------||---0--0--10----0--0--8-----|--0--0-------------0------|


---------------------------|--------------------------|--------------------------|
---------------------------|--------------------------|--------------------------|
---------------------------|--------------------------|--------------------------|
--9-----10--9--------10----|--9-------10--9-----------|-----12--------10----9----|
--7-----8---7--------8-----|--7-------8---7-----8--7--|--8--10--7--7--8-----7----|
-----0---------0--0--------|-------0---------0--------|--------------------------|

-----------------------||--------------------------|--------------------------|
-----------------------||--------------------------|--------------------------|
----------------------*||--------12----------10----|--------------------------|
-----10--9-----10--9--*||--------12----------10----|--------10----9-------10--|
-----8---7-----8---7---||--------10----------8-----|--------8-----7-------8---|
--0---------0----------||--0--0--10----0--0--8-----|--0--0-------------0------|

---------------------------|--------------------------|---------------|
---------------------------|--------------------------|---------------|
---------------------------|--------------------------|---------------|
--9-----10--9--------10----|--9-------10--9-----------|-----12--9--9--|
--7-----8---7--------8-----|--7-------8---7-----8--7--|--8--10--7--7--|
-----0---------0--0--------|-------0---------0--------|---------------|

-----------------------------|------------------|------------------------------|
-----------------------------|------------------|------------------------------|
-----------------------------|------------------|------------------------------|
--10-9-----10-9-----10-9--|-----10-9--------|----------------------------------|
--8--7-----8--7-----8--7--|-----8--7--------|--8--7--8--10--8--7---------------|
---------0---------0---------|--0---------0--0--|---------------------10--8----|

------------------------|------------------------------|-----------------------------|
-----------------12-----|--15b-15~-----------15--------|--20------19------18-----17--|
--9----21t-----------9--|----------------12------12/18-|------18------17------16--15-|
------------------------|------------------------------|-----------------------------|
------------------------|------------------------------|-----------------------------|
------------------------|------------------------------|-----------------------------|

----------------------14-16-16-|--20~-----------------|------------------------|
--16~-----------14-17----------|------------20~-------|---------------------16-|
-------------------------------|----------------------|--17~-------------------|
-------------------------------|----------------------|------------17~---------|
-------------------------------|----------------------|------------------------|
-------------------------------|----------------------|------------------------|

-----------16-17-18-19-20-21-22-22--------|----------------------||---------------------------|
--16-18-20--------------------------------|----------------------||---------------------------|
--------------_---------------------------|--9-------------10----||*--------------------------|
------------------------------------------|--9------9------10----||*-----------7-87-----------|
------------------------------------------|--7------9------8-----||---7--8--10------10--8--7--|
------------------------------------------|---------7------------||---------------------------|

------------------------------||-----------------------------|------------------------------||
------------------------------||-----------------------------|------------------------------||
-----------------------------*||*----------------------------|-----------------------------*||
--10--9--7------8--7---------*||*------------7--8--7---------|--10--9--7------8--7---------*||
------------10--------10--8---||---7--8--10--7--8--7--10--8--|--10--9--7--10--8--7--10--8---||
------------------------------||---7--8--10-----------10--8--|------------10--------10--8---||

-------------------------------|--------------------------------|-------------------------------|
-------------------------------|--------------------------------|-------------------------------|
-------------9--10--9----------|--12--11--9------10--9----------|-------------9--10--9----------|
--9--10--12--7--8---7--12--10--|--10--9---7--12--8---7--12--10--|--9--10--12--7--8---7--12--10--|
--7--8---9-------------10--8---|-------------10---------10--8---|--7--8---10------------10--8---|
-------------------------------|--------------------------------|-------------------------------|

--------------------------------|-----------------------------|------------------------|
--------------------------------|-----------------------------|------------------------|
--12--11--9------11--9----------|--10--9--7------9--7---------|--8--7--5-----7--5------|
--10--9---7--12--9---7--12--10-|--8---7--5--10--7--5--10--9-|--6--5--3--8--5--3--8--7--|
-------------10---------10--8--|------------8---------8---7-|-----------6--------6--5--|
--------------------------------|-----------------------------|------------------------|

---------------------|------------------------|------------------------|------------------------|
----------------9----|------------------------|------------------------|------------------------|
---------8------9----|------------------------|------------------------|------------------------|
--7------8------9----|------------------------|------------------------|------------------------|
--5------6------7----|--------x--3----x--5----|--------x--2----x--4----|--------x--1----x--3/---|
--5------6------7----|--3h-5------------------|--2h-4------------------|--1h-3------------------|

-------------------------|---------------|--------------------------|----------------------------|
-------------------------|---------------|--15r-----------15--15----|--15~-----------15p-12--12--|
-------------------------|---------------|--------------------------|----------------------------|
--10----10----10------6/-|--7------------|--------------------------|----------------------------|
--8-----8-----8-------6/-|--7------------|--------------------------|----------------------------|
--0-----0-----0----------|---------------|--------------------------|----------------------------|

----------12--------------------------------|----------------------|--15b-----------15p-12--|
------12------12----------------------------|----------------------|------------------------|
--14b-------------14--12--14b---14p-12--12--|----------------------|------------------------|
--------------------------------------------|--14~-----------14---|-------------------------|
--------------------------------------------|----------------------|------------------------|
--------------------------------------------|----------------------|------------------------|

----------------------|--------------------------|--------------------||
--15b-----------15----|--------15----------------|--------------------||
----------------------|--14----------------15----|--------------------||
----------------------|--------------14----------|--------------------||
----------------------|--------------------------|--------------------||
----------------------|--------------------------|--12~---------------||

--------------13-------------11--|-------------9-------------8--|---------------8------------9--|
----------11--------------9------|----------7-------------6-----|------------6------------7-----|
---------------------------------|------------------------------|-------------------------------|
--11--15----------10--13---------|--8-8-11--------7-7-10--------|--7-7-10-10-------8--11--------|
---------------------------------|------------------------------|-------------------------------|
---------------------------------|------------------------------|-------------------------------|

-------------11----------------13--|--12h15p12h15p12h15p12--------------------------|
----------9----------------11------|------------------------15p12h15p12h15p12-------|
-----------------------------------|------------------------------------------14-12h|
--10--13---------12-12-15----------|------------------------------------------------|
-----------------------------------|------------------------------------------------|
-----------------------------------|------------------------------------------------|

--------------------------------------------|--------------------15b---15----12----|
--------------------------------------------|--15b---15----12----------------------|
--14p12h14p12h14p12-------------------------|--------------------------------------|
--------------------14-12-14p12h14p12-------|--------------------------------------|
--------------------------------------14----|--------------------------------------|
--------------------------------------------|--------------------------------------|

------------------------|--------------------------|--------------------------------------|
--15b---------------17--|---20b----17---------17---|--20----------17----20----------17----|
----------------18------|--------------19b---------|--------19b---------------19b---------|
------------------------|--------------------------|--------------------------------------|
------------------------|--------------------------|--------------------------------------|
------------------------|--------------------------|--------------------------------------|

------20b-------17--20p-17--------|--17------------------------------------|
--20------------------------20-17-|------20--17--20b-17--20b---20b---20b---|
----------------------------------|----------------------------------------|
----------------------------------|----------------------------------------|
----------------------------------|----------------------------------------|
----------------------------------|----------------------------------------|

--------------13-------------11--|-------------9-------------8--|-------------8-------------9--|
----------11--------------9------|----------7-------------6-----|----------6-------------7-----|
---------------------------------|------------------------------|------------------------------|
--11--15----------10--13---------|--8-8-11--------7-7-10--------|--7-7-10--------8-8-10--------|
---------------------------------|------------------------------|------------------------------|
---------------------------------|------------------------------|------------------------------|

---------------11----------------13--|--5p-2p-0--5p-2p-0--5p-2p-0--5p-2p-0--|
------------9----------------11------|--------------------------------------|
-------------------------------------|--------------------------------------|
--10-10-13---------11-11-15----------|--------------------------------------|
-------------------------------------|--------------------------------------|
-------------------------------------|--------------------------------------|

--7p-4p-0--7p-4p-0--7p-4p-0--7p-4p-0--|--8p-5p-0--7p-4p-0--8p-5p-0--10p-6p-0--|
--------------------------------------|---------------------------------------|
--------------------------------------|---------------------------------------|
--------------------------------------|---------------------------------------|
--------------------------------------|---------------------------------------|
--------------------------------------|---------------------------------------|

--9p-5p-0--9p-5p-0--9p-5p-0--9p-5p-0--|--12p-9p-0--12p-9p-0--12p-9p-0--12p-9p-0--|
--------------------------------------|------------------------------------------|
--------------------------------------|------------------------------------------|
--------------------------------------|------------------------------------------|
--------------------------------------|------------------------------------------|
--------------------------------------|------------------------------------------|

--15p-12p-0--15p-12p-0--12p-9p-0--12p-9p-0--|--15p-12p-0--16p-13p-0--17p-14p-0--18p-15p-0--|
--------------------------------------------|----------------------------------------------|
--------------------------------------------|----------------------------------------------|
--------------------------------------------|----------------------------------------------|
--------------------------------------------|----------------------------------------------|
--------------------------------------------|----------------------------------------------|

--19p-16p-0--22p17h22p17-22--22b-------||---------------------------|----------------------------|
---------------------------------------||---------------------------|----------------------------|
---------------------------------------||*--------------------------|---------------------------*|
---------------------------------------||*---------3-----------5----|---------6-----------6-5--*-|
---------------------------------------||----------1-----------3----|---------4-----------4-3----|
---------------------------------------||---0-0-0--1----0-0-0--3----|--0-0-0--4----0-0-0--4-3----|

----------------------|----------------------|--------------------|--------------------|
----------------------|----------------------|--------------------|--------------------|
----------------------|----------------------|--------------------|--------------------|
--3--3------3--3------|--3--3------3--3------|--------------------|--------------------|
--3--3------3--3------|--3--3------3--3------|--2--------------2--|--2--------------2--|
--0--0------0--0------|--0--0------0--0------|--0--------------0--|--0--------------0--|

--------------------|--------------------|--------------------|--------------------|
--------------------|--------------------|--------------------|--------------------|
--------------------|--------------------|--------------------|--------------------|
--------------------|--------------------|--------------------|--------------------|
--2--------------2--|--2--------------2--|--2--------------2--|--2--------------2--|
--0--------------0--|--0--------------0--|--0--------------0--|--0--------------0--|

-------------------|----------------------||
-------------------|----------------------||
-------------------|----------------10----||
-------------------|--9------9------10----||
--2----------------|--7------9------8-----||
--0----------------|--7------7------------||
Добавлено: 04.10.2013
Другие материалы по этой песне:

Страница создана 30.03.2012
http://primanota.ru/overkill/nothing-to-die-for-chords.htm
Привет, Гость.
Предлагаем пройти революционный курс по гитаре.
Подарок от PrimaNota.Ru, забирай!