PrimaNota.ru - самый крупный в мире бесплатный архив песенных текстов, аккордов, табулатур и нот


Orianthi - How Do You Sleep - таба, видео

Регистрация Запомнить меня
Войти через:  Facebook Google Twitter Vk Yandex Mail.ru

Orianthi - How Do You Sleep - таба, видео

Печатать
Просмотров: 162
-------------------------------------------------------------------------------
                             HOW DO YOU SLEEP? - Orianthi
-------------------------------------------------------------------------------
Tabbed by: Jacqui Martin
Instagram: @jacqui_martin

Tuning: Standard

e|---------------------------------------------------------------------------|
B|---------------------------------------------------------------------------|
G|---------------------------------------------------------------------------|
D|-------------------------7--------10h7--------6/7~~~-----------------------|
A|-------/7-------10---------------------------------------------------------|
E|---------------------------------------------------------------------------|

e|---------------------------------------------------------------------------|
B|---------------------------------------------------------------------------|
G|---------------------------------------------------------------------------|
D|-------------------------7--------12b13---------12---------10/12~~~/14-----|
A|-------/7--------10--------------------------------------------------------|
E|---------------------------------------------------------------------------|

e|---------------------------------------------------------------------------|
B|---------------------------------------------------------------------------|
G|------9---12---12---12---12---12p9------9-----------------/9---------------|
D|------------------------------------12-----12---10---12-------10---12------|
A|---------------------------------------------------------------------------|
E|---------------------------------------------------------------------------|

e|---------------------------------------------------------------------------|
B|---------------------------------------------------------------------------|
G|-------5-----7-----9----9b10-----------------------------------------------|
D|--------------------------------------/10----7---5-------------------------|
A|-----------------------------------------------------/7----5---------------|
E|-----------------------------------------------------------------8-----5---|

e|-----------------------------------------------|
B|------------------10----------13----10-----10--| (use whammy bar if you have one)
G|-----/9-----12----------9----------------------|
D|-----------------------------------------------|
A|-----------------------------------------------|
E|-----------------------------------------------|

e|---------------------------------------------------------------------------|
B|----13b15---13----10-----13-------10---------------------------------------|
G|----------------------------------------12-----9-----7--------7---9---7\---|
D|---------------------------------------------------------10----------------|
A|---------------------------------------------------------------------------|
E|---------------------------------------------------------------------------|
 
************************************

| /   slide up
| \   slide down
| h   hammer-on
| p   pull-off
| ~   vibrato
| +   harmonic
| x   Mute note
| b   Bend


************************************
Добавлено: 10.12.2015
Вам также может быть интересно:
Другие материалы по этой песне:
  • Аккорды и текст

Страница создана 10.12.2015
http://primanota.ru/orianthi/how-do-you-sleep-chords.htm
Привет, Гость.
Предлагаем пройти революционный курс по гитаре.
Подарок от PrimaNota.Ru, забирай!