PrimaNota.ru - самый крупный в мире бесплатный архив песенных текстов, аккордов, табулатур и нот


Orianthi - Lights Of Manos Live - таба, видео

Регистрация Запомнить меня
Войти через:  Facebook Google Twitter Vk Yandex Mail.ru

Orianthi - Lights Of Manos Live - таба, видео

Печатать
Просмотров: 101
Уроки эстрадного вокала в Санкт-Петербурге
Tabbed by LuchadorMetal

This is one of the live versions of this song. She plays it differently every time.

e|--------------------------------------------------------|
B|-----------------12-12h13-13p12-13-12----12~------------|
G|--------11-12-14----------------------14------14-12-----|
D|-----12-------------------------------------------------|
A|--14------------------------------------------------14--|
E|--------------------------------------------------------|

e|------------------------------------------------------------------------|
B|--12-15-13-12-13-13p12-10-12-10-------10--------------------------------|
G|--------------------------------12-11----12-11-12-11h12p11--------------|
D|-----------------------------------------------------------12-12p10-----|
A|------------------------------------------------------------------------|
E|--------------------------------------------------------------------12--|

e|----------------------------------------|--------------------|
B|----------------------------------------|--12/15v\12v\10v~\--|
G|----------------------------------------|--------------------|
D|----------------------------------------|--------------------|
A|--------10-12/13\12-10------------------|--------------------|
E|--10h12----------------12-10-12-10-12~--|--------------------|

e|--------------------------|-----------------------------|--------------------|
B|--7h8-10-8-7-8-7----------|-----------------------------|--12h15vp12v\10v~\--|
G|------------------9-------|-----------------------------|--------------------|
D|--------------------7-9~--|------5-7/8\7-5--------------|--------------------|
A|--------------------------|--5h7-----------7-5h7-5\7~\--|--------------------|
E|--------------------------|-----------------------------|--------------------|

e|-----------------------------|-----------------------------|
B|--7h8-10-8-7-8-7-------------|-----------------------------|
G|-----------------9-----------|-----------------------------|
D|-------------------7h9-7h9~--|------5-7/8\7-5--------------|
A|-----------------------------|--5h7-----------7-5h7-5\7~\--|
E|-----------------------------|-----------------------------|

e|-------------------12-14-12-14~-15----14~----14~-12-14-15-12--|
B|----------------12-----------------12-----12------------------|
G|-----------9-12-----------------------------------------------|
D|--------9-----------------------------------------------------|
A|-----10-------------------------------------------------------|
E|--12----------------------------------------------------------|

e|-------------------------------------------------------------------------------------------------------------|
B|12-15--------------------------------------------------------------------------------------------------------|
G|------14-12-14b-14-12----12-14b-14-12------------------------------------------------------------------------|
D|----------------------14--------------14-12h14-12h14-12h14-12h14-12------------------------------------------|
A|--------------------------------------------------------------------14-12\10----10-12/13-12-10---------------|
E|-----------------------------------------------------------------------------12----------------12-10/12-10/12|

e|-------------------12-14h15p14p12-14-14-15-------12--|
B|----------------12----------------------------12-----|
G|-----------9-12----------------------------12--------|
D|--------9--------------------------------------------|
A|-----10----------------------------------------------|
E|--12-------------------------------------------------|

e|--17b-(19)-(19)-(19)-(19)-(19)-(19)-(19)-(19)-(19)-(19)-(19)-(19)-(19)-(19)-(19)-(19)-(19)-(19)--|
B|-------------------------------------------------------------------------------------------------|
G|-------------------------------------------------------------------------------------------------|
D|-------------------------------------------------------------------------------------------------|
A|-------------------------------------------------------------------------------------------------|
E|-------------------------------------------------------------------------------------------------|

e|-17br19-15-17-15----------------------|
B|-----------------17br19-15-17-15-15\--|
G|--------------------------------------|
D|--------------------------------------|
A|--------------------------------------|
E|--------------------------------------|

e|--12-12-12-14b-(16)-(16)-(16)-(16)-(16)-(16)-(16)-(16)-(16)-(16)-(16)-(16)-(16)-(16)-(16)-(16)-(16)-(16)--|
B|--12-12-12------------------------------------------------------------------------------------------------|
G|----------------------------------------------------------------------------------------------------------|
D|----------------------------------------------------------------------------------------------------------|
A|----------------------------------------------------------------------------------------------------------|
E|----------------------------------------------------------------------------------------------------------|

e|--14-14p12----12-15-15p12----12------(12)--------(12)-----(12)--------(12)-----(12)--------(12)--|
B|-----------13-------------13-----15b------15b-15------15b------15b-15------15b------15b-15-------|
G|-------------------------------------------------------------------------------------------------|
D|-------------------------------------------------------------------------------------------------|
A|-------------------------------------------------------------------------------------------------|
E|-------------------------------------------------------------------------------------------------|

e|------12-------------------12----------------------------------------------|
B|--15b----15b-15-13-12--15b----15b-15-13-12---------------------------------|
G|--------------------------------------------14-14p12-----------------------|
D|-----------------------------------------------------14-12-14p12-----------|
A|-----------------------------------------------------------------14-12\10--|
E|---------------------------------------------------------------------------|

e|--------------------------------------------------------------------------------------------------------|
B|--------------------------------------------------------------------------------------------------------|
G|--------------------------------------------------------------------------------------------------------|
D|--------------------------------------------------------------------------------------------------------|
A|--10----10-10/12\10----10-10/12\10---10-10/12\10----10-10/12\10----10-10/12\10----10-10/12-13-12-10-----|
E|-----12-------------12-------------12------------12-------------12-------------12-------------------12--|

e|------------------------------------------------------------|
B|------------------------------------------------------------|
G|-----------------------------------------------12-12-12-12--|
D|-----------------------12-12-12-12-14-14-14-14--------------|
A|-----10/12-14-14-14-14--------------------------------------|
E|--12--------------------------------------------------------|

e|------12-----12-----12-----12-----12-----12-----12-15b-(17)-(17)-(17)-15r--|
B|---------15b-----------15b-----------15b----15b----------------------------|
G|--14b-----------14b-----------14b------------------------------------------|
D|---------------------------------------------------------------------------|
A|---------------------------------------------------------------------------|
E|---------------------------------------------------------------------------|

e|--12----12-15b17-12-------------------------------------------------------|
B|-----15-------------15-12----------------------15-------------------------|
G|--------------------------14b15-14-12----12-14----14b14b14b14b------------|
D|--------------------------------------14-----------------------12---------|
A|------------------------------------------------------------------14-12\--|
E|--------------------------------------------------------------------------|

                                                  x6
e|-----14----14--14-14-14-14-14-|-14-14h15p14p12-----|
B|--12----12--------------------|----------------15--|
G|------------------------------|--------------------|
D|------------------------------|--------------------|
A|------------------------------|--------------------|
E|------------------------------|--------------------|

e|-----12------------------------------------------------------------|-----------------------------|
B|--15-------------------15------------------------------------------|-----------------------------|
G|--------14b15-14-12-------12-14------------------------------------|-----------------------------|
D|--------------------14----------12h14-12h14-12h14-12----14----12~--|-----------------------------|
A|-----------------------------------------------------14----14------|--14-12-10----12-10-10~-12\--|
E|-------------------------------------------------------------------|-----------12----------------|

e|--------------------------------------------------------------------------------------------------|
B|--12h15-12h15p12h15p12h15p12h1512h15-12\10/12h15-12\10/12h15-12\10/12h15-12\10/12h15-12\10/12h15--|
G|--------------------------------------------------------------------------------------------------|
D|--------------------------------------------------------------------------------------------------|
A|--------------------------------------------------------------------------------------------------|
E|--------------------------------------------------------------------------------------------------|

e|----------------------------------------------------------------------------------------------|
B|--12h15p12-10h12p10-8h10p8--7-8-7----7-8-10-8-7---7-8-10-8-7---7-8-10-8-7---------------------|
G|----------------------------------9-------------9------------9------------9-7-7h9-------------|
D|----------------------------------------------------------------------------------7-7h9-7\5~--|
A|----------------------------------------------------------------------------------------------|
E|----------------------------------------------------------------------------------------------|

e|----------------------------------------------|
B|----------------------------------------------|
G|----------------------------------------------|
D|----------------------------------------------|
A|--5---5-7-7b8-7-5---7---5~--7-5---5-7-5-5/7~--|
E|----7-------------7---7---------7-------------|

e|-------------------------------------------------------------------------12-12-12-12-14b--|
B|--------------------------------8888-10-10-10-10-12-12-12-12-15-15-15-15------------------|
G|----------------------7777-9999-----------------------------------------------------------|
D|------------5555-5555---------------------------------------------------------------------|
A|--5555-7777-------------------------------------------------------------------------------|
E|------------------------------------------------------------------------------------------|

e|--14r-12-14-12----12-14-15-12----------------------------------------------------------------|
B|---------------15-------------12h15p12h15---12-15--------------------------------------------|
G|--------------------------------------------------14b-14-12----12-14-14b-14-12---------------|
D|------------------------------------------------------------14-----------------14-12-12~-14--|
A|---------------------------------------------------------------------------------------------|
E|---------------------------------------------------------------------------------------------|

e|-------------------------------------------------------------------------------------------------------------|
B|-------------------------------------------------------------------------------------------------------------|
G|-------------11-14-12-11----12-11h12h11----------------------------------------------------------------------|
D|-------14-12-------------14-------------14-12----12-14-12----------------------------------------------------|
A|-12-14----------------------------------------14----------14-12\10----10-12/13-12-10-------------------------|
E|-------------------------------------------------------------------12----------------12-10-12b-12-10/12-10/12|

e|-----12----14b-(16)-(16)-(16)-(16)-(16)-(16)-(16)-(16)-14h15p14p12-14r-14-14-15--|
B|--12----12-----------------------------------------------------------------------|
G|---------------------------------------------------------------------------------|
D|---------------------------------------------------------------------------------|
A|---------------------------------------------------------------------------------|
E|---------------------------------------------------------------------------------|

e|-----12----14br-14-12----12-15-12----12----------------------------|
B|--12----12------------15----------15----15-12----------------------|
G|----------------------------------------------14b-14-14b14b14b14b--|
D|-------------------------------------------------------------------|
A|-------------------------------------------------------------------|
E|-------------------------------------------------------------------|

e|------------------------------------------------------------------|-----------------------------|
B|--15-12--------15-12-15--------12----15-12----12------------------|-----------------------------|
G|--------14-14b----------14-14b----14-------14----14-12----14-12~--|-----------------------------|
D|-------------------------------------------------------14---------|--14-12----------------------|
A|------------------------------------------------------------------|--------12-10----------------|
E|------------------------------------------------------------------|--------------12-10-10~-12\--|

               x8
e|--------19-15--|--------17b19-(19)-(19)-(19)-(19)-(19)-(19)-(19)-(19)-(19)-(19)-(19)-(19)-(19)-(19)-(19)--|
B|-----15--------|-----15-----------------------------------------------------------------------------------|
G|--17-----------|--17--------------------------------------------------------------------------------------|
D|---------------|------------------------------------------------------------------------------------------|
A|---------------|------------------------------------------------------------------------------------------|
E|---------------|------------------------------------------------------------------------------------------|

e|--17r-15----15-17br-15----------------------------------------------------------------------|
B|---------17------------17-15----15-17-15-12----12-15-12-15----------------------------------|
G|-----------------------------16-------------14-------------14-------------------------------|
D|--------------------------------------------------------------14----14-12-------------------|
A|-----------------------------------------------------------------14-------14-12~-10-10-12~--|
E|--------------------------------------------------------------------------------------------|

e|-----------------------------------------------------------------------|
B|-----------------------------------------------------------------------|
G|-----------------------------------------------------------------------|
D|--1b2-(2)-(2)-(2)-(2)-(2)-(2)-(2)-(2)-(2)-(2)-(2)-(2)-(2)-(2)-(2)-(2)--|
A|-----------------------------------------------------------------------|
E|-----------------------------------------------------------------------|

           x4
e|-----------|-----------------------------------------------------------|
B|-----------|----------------3333-5555-7777-10-10-10-10-12-12-12-12-12--|
G|--0-2/4\2--|--0-2/4444-5555--------------------------------------------|
D|-----------|-----------------------------------------------------------|
A|-----------|-----------------------------------------------------------|
E|-----------|-----------------------------------------------------------|

               x4
e|-----12-15-12--|-----12---------------------------------------------------------------------------|
B|--15-----------|--15----15b15b15b15b-15r-12----12-15-12----12-15-12-------------------------------|
G|---------------|----------------------------14----------14----------14-14b-14-12----12-14----12~--|
D|---------------|-----------------------------------------------------------------14-------14------|
A|---------------|----------------------------------------------------------------------------------|
E|---------------|----------------------------------------------------------------------------------|

e|--------------------------------------------------------------|
B|--------------------------------------------------------------|
G|--------------------------------------------------------------|
D|--14-12-------------------------------------------------------|
A|--------12\10----------10-12/13\12-10----10~------------------|
E|--------------12-10-12----------------12-----12-10/12-10/12~--|
Добавлено: 10.12.2015
Другие материалы по этой песне:
  • Аккорды и текст

Страница создана 10.12.2015
http://primanota.ru/orianthi/lights-of-manos-live-chords.htm
Привет, Гость.
Предлагаем пройти революционный курс по гитаре.
Подарок от PrimaNota.Ru, забирай!