PrimaNota.ru - самый крупный в мире бесплатный архив песенных текстов, аккордов, табулатур и нот


Oomph - Die Maske - текст песни, таба, видео

Регистрация Запомнить меня
Войти через:  Facebook Google Twitter Vk Yandex Mail.ru

Oomph - Die Maske - текст песни, таба, видео

Печатать
Просмотров: 134
-------------------------------------------------------------------------------
                             Die maske - OOMPH!
-------------------------------------------------------------------------------
Tabbed by: Tunedi
E-mail: thetunedfish@gmail.com

Tuning: standard B

4x intro and verse 1&2


B|---------------------------------------------------------
G|---------------------------------------------------------
D|---------------------------------------------------------
A|---------------------------------------------------------
E|-2---2---------2---2---------2---2---------2---2---------
B|-0---0---5-7-3-0---0---3-5---0---0---5-7-3-0---0---0-2-3-
   x   x         x   x         x   x         x   x                                                       



--------------------------------------------------------|
--------------------------------------------------------|
--------------------------------------------------------|
--------------------------------------------------------|
2---2---------2---2---5-7+--2---2---------2---2---------|
0---0---5-7-3-0---0---------0---0---5-7-3-0---0---3-2-3-|
x   x         x   x         x   x         x   x



2x pre-chorus

B|-------------------------------------------------------------------------------|
G|-------------------------------------------------------------------------------|
D|-------------------------------------------------------------------------------|
A|-------------------------------------------------------------------------------|
E|-4---5---2---3---4-5-4---5---2---0---7-5-4-5---2---3---4-5-4---5---2---3---7-8-|
B|-2---3---0---1---2-3-2---3---0---1---5-3-2-3---0---1---2-3-2---3---0---1---5-6-|



4x chorus

B|-------------------------------------------------------------------|
G|-------------------------------------------------------------------|
D|-------------------------------------------------------------------|
A|---------7-9---7-9---7-9---7-9--7---------7-9---7-9---7-9------6---|
E|-2---2-2-5-7---5-7---5-7---5-7--5-2---2-2-5-7---5-7---5-7--5-7-----|
B|-0---0-0--------------------------0---0-0--------------------------|
       x x                              x x


post-chorus

B|----------------------------------------------------------------------------------------|
G|----------------------------------------------------------------------------------------|
D|----------------------------------------------------------------------------------------|
A|------------------------------------------7-9---7-9---7-9-------------------------------|
E|-5---------------4-------3--------2---2-2-5-7---5-7---5-7--5-5-----------4--------------|
B|-3---------------2-------1--------0---0-0--------------------3-----------2--------------|
                                        x x


8x      outro

B|----------------------------------|
G|----------------------------------|
D|----------------------------------|
A|---------7-9---7-9---7-9---7-9--7-|
E|-2---2-2-5-7---5-7---5-7---5-7--5-|
B|-0---0-0--------------------------|
       x x
Добавлено: 04.08.2015
Другие материалы по этой песне:
  • Аккорды и текст

Страница создана 13.03.2012
http://primanota.ru/oomph/die-maske-chords.htm
Привет, Гость.
Предлагаем пройти революционный курс по гитаре.
Подарок от PrimaNota.Ru, забирай!