PrimaNota.ru - самый крупный в мире бесплатный архив песенных текстов, аккордов, табулатур и нот


Oomph - I.n.r.i. vs Jahwe - текст песни, таба, видео

Регистрация Запомнить меня
Войти через:  Facebook Google Twitter Vk Yandex Mail.ru

Oomph - I.n.r.i. vs Jahwe - текст песни, таба, видео

Печатать
Просмотров: 187
I.N.R.I. vs. Jahwe – Oomph!

I learnt this song by ear and help from my guitar teacher.

Intro/Interlude:
e|------------------------------------------------------------|
B|------------------------------------------------------------|
G|------------------------------------------------------------|
D|0-0-5-0-3-0-2-0--0-5-0-3-0-2~~0-0-5-0-3-0-2-0--0-5-0-3-0-2-3|
A|0-0-5-0-3-0-2-0--0-5-0-3-0-2~~0-0-5-0-3-0-2-0--0-5-0-3-0-2-3|
E|0-0-5-0-3-0-2-0--0-5-0-3-0-2~~0-0-5-0-3-0-2-0--0-5-0-3-0-2-3|
(Play 4 times)

Verse riff 1:
e|---------------------------------------------------------|
B|---------------------------------------------------------|
G|---------------------------------------------------------|
D|0-0--------1--0-0--------3-4-0-0--------1--0-0--------3-4|
A|0-0--------1--0-0--------3-4-0-0--------1--0-0--------3-4|
E|0-0--------1--0-0--------3-4-0-0--------1--0-0--------3-4|

Verse riff 2:
e|----------------------------------------------------------------|
B|----------------------------------------------------------------|
G|----------------------------------------------------------------|
D|0-0-----------1-0-0-----------1-0-0-----------1-0-0----------3-4|
A|0-0-----------1-0-0-----------1-0-0-----------1-0-0----------3-4|
E|0-0-00-00-00-01-0-0-00-00-00-01-0-0-00-00-00-01-0-0-00-00-00-3-4|
PM    .. .. .. .      .. .. .. .      .. .. .. .      .. .. ..  
Verse riff 3:
e|-------------------------------------------------------------------------|
B|-------------------------------------------------------------------------|
G|-------------------------------------------------------------------------|
D|0-0-----------1-0-0-----------1-0-0-----------1-0-0----------3--4--5--6--|
A|0-0-----------1-0-0-----------1-0-0-----------1-0-0----------3--4--5--6--|
E|0-0-00-00-00-01-0-0-00-00-00-01-0-0-00-00-00-01-0-0-00-00-00-3--4--5--6--|
PM    .. .. .. .      .. .. .. .      .. .. .. .      .. .. .. 

Pre-chorus riff 1:
e|--------------------------------------------------------------------|
B|--------------------------------------------------------------------|
G|--------------------------------------------------------------------|
D|7-7-7-7-6--5--0--7-7-7-7-6--5--0--7-7-7-7-6--5--0--7-7-7-7-6--5--0--|
A|7-7-7-7-6--5--0--7-7-7-7-6--5--0--7-7-7-7-6--5--0--7-7-7-7-6--5--0--|
E|7-7-7-7-6--5--0--7-7-7-7-6--5--0--7-7-7-7-6--5--0--7-7-7-7-6--5--0--|

Pre-chorus riff 2:
e|--------------------------------------------------------------------|
B|--------------------------------------------------------------------|
G|--------------------------------------------------------------------|
D|7-7-7-7-6--5--0--7-7-7-7-6--5--0--7-7-7-7-6--5--0--7-7-7-7-8-10-10--|
A|7-7-7-7-6--5--0--7-7-7-7-6--5--0--7-7-7-7-6--5--0--7-7-7-7-8-10-10--|
E|7-7-7-7-6--5--0--7-7-7-7-6--5--0--7-7-7-7-6--5--0--7-7-7-7-8-10-10--|
 
Chorus riff 1:
e|---------------------------------------------------------------|
B|---------------------------------------------------------------|
G|---------------------------------------------------------------|
D|2-2-2-2-2-0-2-3-2-2-2-2-2-0-2-3-2-2-2-2-2-0-2-3-2-2-2-2-2-0-2-3|
A|2-2-2-2-2-0-2-3-2-2-2-2-2-0-2-3-2-2-2-2-2-0-2-3-2-2-2-2-2-0-2-3|
E|2-2-2-2-2-0-2-3-2-2-2-2-2-0-2-3-2-2-2-2-2-0-2-3-2-2-2-2-2-0-2-3|

Chorus riff 2:
e|---------------------------------------------------------------|
B|---------------------------------------------------------------|
G|---------------------------------------------------------------|
D|2-2-2-2-2-0-2-3-2-2-2-2-2-0-2-3-2-2-2-2-2-0-2-3-2-2-2-2-2-3~~~~|
A|2-2-2-2-2-0-2-3-2-2-2-2-2-0-2-3-2-2-2-2-2-0-2-3-2-2-2-2-2-3~~~~|
E|2-2-2-2-2-0-2-3-2-2-2-2-2-0-2-3-2-2-2-2-2-0-2-3-2-2-2-2-2-3~~~~|
(Play riffs 1 and 2 twice)
Добавлено: 04.12.2013
Другие материалы по этой песне:
  • Аккорды и текст

Страница создана 01.06.2012
http://primanota.ru/oomph/inri-vs-jahwe-chords.htm
Привет, Гость.
Предлагаем пройти революционный курс по гитаре.
Подарок от PrimaNota.Ru, забирай!