PrimaNota.ru - самый крупный в мире бесплатный архив песенных текстов, аккордов, табулатур и нот


Old Mans Child - War Of Fidelity - таба, видео

Регистрация Запомнить меня
Войти через:  Facebook Google Twitter Vk Yandex Mail.ru

Old Mans Child - War Of Fidelity - таба, видео

Печатать
Просмотров: 86
OLD MAN'S CHILD

WAR OF FIDELITY

EADGBE


TABBED BY andherembrace




L
--------------------------------------------------------------------|
--^-----^-----^-----^-----^---^---^-----^-----^---^------^----------|
-6-0---6-0---6-0---6-0---6-0-0-7-6-0---6-0---8-0-7-0----7-0----7/8--|
--------------------------------------------------------------------|
-----9-----9-----9-----9-------------9-----9---------10-----10------|
--------------------------------------------------------------------|
     *     *     *     *             *     *          *      *
R
---------------------------------------------------------------------|
--^-----^-----^-----^-----^---^-----^-----^-----^----^-----^---------|
11-0--11-0--11-0--11-0--11-0-0-12-11-0--11-0--13-0-12-0--12-0---12/13|
---------------------------------------------------------------------|
-----9-----9-----9-----9---------------9-----9---------10-----10-----|
---------------------------------------------------------------------|
     *     *     *     *               *     *          *      *


L
--------------------------------------------------------------------|
--^-----^-----^-----^-----^---^---^-----^-----^---^------^----------|
-6-0---6-0---6-0---6-0---6-0-0-7-6-0---6-0---8-0-7-0----7-0----7/8--|
--------------------------------------------------------------------|
-----9-----9-----9-----9-------------9-----9---------10-----10------|
--------------------------------------------------------------------|
     *     *     *     *             *     *          *      *
R
---------------------------------------------------------------------|
--^-----^-----^-----^-----^---^-----^-----^-----^----^-----^---------|
11-0--11-0--11-0--11-0--11-0-0-12-11-0--11-0--13-0-12-0--12-0---12/13|
---------------------------------------------------------------------|
-----9-----9-----9-----9---------------9-----9---------10-----10-----|
---------------------------------------------------------------------|
     *     *     *     *               *     *          *      *



0;20

L
--------------------------------------------------------------------|
--^-----^-----^-----^-----^---^---^-----^-----^---^------^----------|
-6-0---6-0---6-0---6-0---6-0-0-7-6-0---6-0---8-0-7-0----7-0----7/8--|
--------------------------------------------------------------------|
-----9-----9-----9-----9-------------9-----9---------10-----10------|
--------------------------------------------------------------------|
     *     *     *     *             *     *          *      *
R
---------------------------------------------------------------------|
--^-----^-----^-----^-----^---^-----^-----^-----^----^-----^---------|
11-0--11-0--11-0--11-0--11-0-0-12-11-0--11-0--13-0-12-0--12-0---12/13|
---------------------------------------------------------------------|
-----9-----9-----9-----9---------------9-----9---------10-----10-----|
---------------------------------------------------------------------|
     *     *     *     *               *     *          *      *
3 RYTHM
-------------------------------------------------------------------|
-------------------------------------------------------------------|
-------------------------------------------2----4-3----------------|
-------------------------------------------4----6-5----------------|
-------------------------------------------4----6-5----------------|
-222---222---222---222---------------222-222----4-3-------333-333--|
 ***   ***   ***   ***               *** **               *** *** 



L
--------------------------------------------------------------------|
--^-----^-----^-----^-----^---^---^-----^-----^---^------^----------|
-6-0---6-0---6-0---6-0---6-0-0-7-6-0---6-0---8-0-7-0----7-0----7/8--|
--------------------------------------------------------------------|
-----9-----9-----9-----9-------------9-----9---------10-----10------|
--------------------------------------------------------------------|
     *     *     *     *             *     *          *      *
R
---------------------------------------------------------------------|
--^-----^-----^-----^-----^---^-----^-----^-----^----^-----^---------|
11-0--11-0--11-0--11-0--11-0-0-12-11-0--11-0--13-0-12-0--12-0---12/13|
---------------------------------------------------------------------|
-----9-----9-----9-----9---------------9-----9---------10-----10-----|
---------------------------------------------------------------------|
     *     *     *     *               *     *          *      *
3 RYTHM
-------------------------------------------------------------------|
-------------------------------------------------------------------|
-------------------------------------------2----4-3----------------|
-------------------------------------------4----6-5----------------|
-------------------------------------------4----6-5----------------|
-222---222---222---222---------------222-222----4-3-------333-333--|
 ***   ***   ***   ***               *** **               *** *** 




0:30
L
--------------------------------------------------------|
------------------------__------------------------------|
-----------------------/  \-----------------------------|
--9------------------9-10-9-7-9-----------10-----7------|
--7----------------7-7/-8\7-5-7------------8-----5------|
----000--00000-0-7--------------000--00000----000---000-|
    ***  ***** * * *            ***  *****    ***   ***
R
-------------------------------------------------------|
-----------------------__------------------------------|
----------------------/  \----------------10-----7-----|
--9----------------9-9-10-9-7-9-----------10-----7-----|
--7--------------7---7/-8\7-5-7------------8-----5-----|
----000--00000-7----------------000-00000----000---000-|
    ***  ***** * *              *** *****    ***   ***

L
--------------------------------------------------------|
-----------------------__-------------------------------|
----------------------/  \------------------------------|
--9------------------9-10-9-7-9------------12-----7-----|
--7----------------7-7/-8\7-5-7------------10-----5-----|
----000--00000-0-7--------------000--00000----000---000-|
    ***  ***** * *              ***  *****    ***   ***
R
--------------------------------------------------------|
-----------------------__-------------------------------|
----------------------/  \-----------------12-----7-----|
--9----------------9-9-10-9-7-9------------12-----7-----|
--7--------------7---7/-8\7-5-7------------10-----5-----|
----000--00000-7----------------000--00000----000---000-|
    ***  ***** * *              ***  *****    ***   ***

L
--------------------------------------------------------|
------------------------__------------------------------|
-----------------------/  \-----------------------------|
--9------------------9-10-9-7-9-----------10-----7------|
--7----------------7-7/-8\7-5-7------------8-----5------|
----000--00000-0-7--------------000--00000----000---000-|
    ***  ***** * *              ***  *****    ***   ***
R
-------------------------------------------------------|
-----------------------__------------------------------|
----------------------/  \----------------10-----7-----|
--9----------------9-9-10-9-7-9-----------10-----7-----|
--7--------------7---7/-8\7-5-7------------8-----5-----|
----000--00000-7----------------000-00000----000---000-|
    ***  ***** * *              *** *****    ***   ***

L
-------------------------------------------------------|
----------------------__------------------12-12---9--9-|
---------------------/  \-----------------13-13--10-10-|
--9-----------------9-10-9-7-9------------13-13--10-10-|
--7---------------7-7/-8\7-5-7------------11-11---8--8-|
----000-00000-0-7--------------000--00000------0-------|
    *** ***** * *              ***  *****      *
R
-------------------------------------------------------|
------------------------------------------12-12---9--9-|
--------------------9-10-9-7-9------------13-13--10-10-|
--9---------------9-9-10-9-7-9------------13-13--10-10-|
--7-------------7---7/-8\7-5-7------------11-11---8--8-|
----000-00000-7----------------000-00000-------0-------|
    *** ***** * *              *** *****       *  




0:44
L
--------------------------------------------------------|
------------------------__------------------------------|
-----------------------/  \-----------------------------|
--9------------------9-10-9-7-9-----------10-----7------|
--7----------------7-7/-8\7-5-7------------8-----5------|
----000--00000-0-7--------------000--00000----000---000-|
    ***  ***** * * *            ***  *****    ***   ***
R
-------------------------------------------------------|
-----------------------__------------------------------|
----------------------/  \----------------10-----7-----|
--9----------------9-9-10-9-7-9-----------10-----7-----|
--7--------------7---7/-8\7-5-7------------8-----5-----|
----000--00000-7----------------000-00000----000---000-|
    ***  ***** * *              *** *****    ***   ***

L
--------------------------------------------------------|
-----------------------__-------------------------------|
----------------------/  \------------------------------|
--9------------------9-10-9-7-9------------12-----7-----|
--7----------------7-7/-8\7-5-7------------10-----5-----|
----000--00000-0-7--------------000--00000----000---000-|
    ***  ***** * *              ***  *****    ***   ***
R
--------------------------------------------------------|
-----------------------__-------------------------------|
----------------------/  \-----------------12-----7-----|
--9----------------9-9-10-9-7-9------------12-----7-----|
--7--------------7---7/-8\7-5-7------------10-----5-----|
----000--00000-7----------------000--00000----000---000-|
    ***  ***** * *              ***  *****    ***   ***

L
--------------------------------------------------------|
------------------------__------------------------------|
-----------------------/  \-----------------------------|
--9------------------9-10-9-7-9-----------10-----7------|
--7----------------7-7/-8\7-5-7------------8-----5------|
----000--00000-0-7--------------000--00000----000---000-|
    ***  ***** * *              ***  *****    ***   ***
R
-------------------------------------------------------|
-----------------------__------------------------------|
----------------------/  \----------------10-----7-----|
--9----------------9-9-10-9-7-9-----------10-----7-----|
--7--------------7---7/-8\7-5-7------------8-----5-----|
----000--00000-7----------------000-00000----000---000-|
    ***  ***** * *              *** *****    ***   ***


L
------------------------------------------------------|
----------------------__------------------------------|
---------------------/  \----------------13----10-----|
--9-----------------9-10-9-7-9-----------13----10-----|
--7---------------7-7/-8\7-5-7-----------11-----8-----|
----000-00000-0-7--------------000-00000----000---000-|
    *** ***** * *              *** *****    ***   ***
R
-------------------------------------------------------|
----------------------__-------------------------------|
---------------------/  \-----------------13----10-----|
--9---------------9-9-10-9-7-9------------13----10-----|
--7-------------7---7/-8\7-5-7------------11-----8-----|
----000-00000-7----------------000-00000-----000---000-|
    *** ***** * *              *** *****     ***   ***   

  




-----------------|
-----------------|
-15-15-15-15-15--|
-15-15-15-15-15--|
-13-13-13-13-13--|
-13-13-13-13-13--|


0:59


L
-----------------------------------------------------|
-----------------------------------------------------|
-----------------------------------------------------|
-15-9---------12-9--------11-8---------8------11-----|
-13-7---------10-7---------9-6---------6-------9-----|
-13-7--0-0-0--10-7--0-0-0--9-6--0-0-0--6--0-0--9--0-0|
       * * *        * * *       * * *     * *     * *
R
-----------------------------------------------------|
-----------------------------------------------------|
-15-9---------12-9--------11-8-----------------------|
-15-9---------12-9--------11-8---------8------11-----|
-13-7---------10-7---------9-6---------6-------9-----|
-13-7--0-0-0--10-7--0-0-0--9-6--0-0-0--6--0-0--9--0-0|
       * * *        * * *       * * *     * *     * *  


L
------------------------------------------------------|
------------------------------------------------------|
------------------------------------------------------|
-12-9---------12-9--------11-8---------15------10-----|
-10-7---------10-7---------9-6---------13-------8-----|
-10-7--0-0-0--10-7--0-0-0--9-6--0-0-0--13--0-0--8--0-0|
       * * *        * * *       * * *      * *     * *
R
------------------------------------------------------|
------------------------------------------------------|
-12-9---------12-9--------11-8---------15------10-----|
-12-9---------12-9--------11-8---------15------10-----|
-10-7---------10-7---------9-6---------13-------8-----|
-10-7--0-0-0--10-7--0-0-0--9-6--0-0-0--13--0-0--8--0-0|
       * * *        * * *       * * *      * *     * *


L
-----------------------------------------------------|
-----------------------------------------------------|
-----------------------------------------------------|
-15-9---------12-9--------11-8---------8------11-----|
-13-7---------10-7---------9-6---------6-------9-----|
-13-7--0-0-0--10-7--0-0-0--9-6--0-0-0--6--0-0--9--0-0|
       * * *        * * *       * * *     * *     * *
R
-----------------------------------------------------|
-----------------------------------------------------|
-15-9---------12-9--------11-8-----------------------|
-15-9---------12-9--------11-8---------8------11-----|
-13-7---------10-7---------9-6---------6-------9-----|
-13-7--0-0-0--10-7--0-0-0--9-6--0-0-0--6--0-0--9--0-0|
       * * *        * * *       * * *     * *     * *  

L
------------------------------------------------------|
------------------------------------------------------|
------------------------------------------------------|
-12-9---------12-9--------11-8---------15------10-----|
-10-7---------10-7---------9-6---------13-------8-----|
-10-7--0-0-0--10-7--0-0-0--9-6--0-0-0--13--0-0--8--0-0|
       * * *        * * *       * * *      * *     * *
R
------------------------------------------------------|
------------------------------------------------------|
-12-9---------12-9--------11-8---------15------10-----|
-12-9---------12-9--------11-8---------15------10-----|
-10-7---------10-7---------9-6---------13-------8-----|
-10-7--0-0-0--10-7--0-0-0--9-6--0-0-0--13--0-0--8--0-0|
       * * *        * * *       * * *      * *     * *



L
-----------------------------------------------------|
-----------------------------------------------------|
-----------------------------------------------------|
-15-9---------12-9--------11-8---------8------11-----|
-13-7---------10-7---------9-6---------6-------9-----|
-13-7--0-0-0--10-7--0-0-0--9-6--0-0-0--6--0-0--9--0-0|
       * * *        * * *       * * *     * *     * *
R
-----------------------------------------------------|
-----------------------------------------------------|
-----------------------------------------------------|
-11-5---------8-5----------7-4---------4-------7-----|
-13-7--------10-7----------9-6---------6-------9-----|
-------0-0-0--------0-0-0-------0-0-0-----0-0-----0-0|
       * * *        * * *       * * *     * *     * *

L
-------------------------------------------------------|
-------------------------------------------------------|
-------------------------------------------------------|
-12-9---------12-9--------11-8---------15-------10-----|
-10-7---------10-7---------9-6---------13--------8-----|
-10-7--0-0-0--10-7--0-0-0--9-6--0-0-0--13--0-0---8--0-0|
       * * *        * * *       * * *      * *      * *
R
-------------------------------------------------------|
-------------------------------------------------------|
-------------------------------------------------------|
--8-5---------8-5----------7-4---------15-------10-----|
-10-7--------10-7----------9-6---------13--------8-----|
-------0-0-0--------0-0-0-------0-0-0--13--0-0---8--0-0|
       * * *        * * *       * * *      * *      * *


L
-------------------------------------------------------|
-------------------------------------------------------|
-------------------------------------------------------|
-12-9---------12-9--------11-8---------10-------15-----|
-10-7---------10-7---------9-6----------8-------13-----|
-10-7--0-0-0--10-7--0-0-0--9-6--0-0-0---8--0-0--13--0-0|
       * * *        * * *       * * *      * *      * *
R
-------------------------------------------------------|
-------------------------------------------------------|
-------------------------------------------------------|
--8-5---------8-5----------7-4---------10-------15-----|
-10-7--------10-7----------9-6----------8-------13-----|
-------0-0-0--------0-0-0-------0-0-0---8--0-0--13--0-0|
       * * *        * * *       * * *      * *      * *


L
-----------------------------------------------------|
-----------------------------------------------------|
-----------------------------------------------------|
-15-9---------12-9--------11-8---------8------11-----|
-13-7---------10-7---------9-6---------6-------9-----|
-13-7--0-0-0--10-7--0-0-0--9-6--0-0-0--6--0-0--9--0-0|
       * * *        * * *       * * *     * *     * *
R
-----------------------------------------------------|
-----------------------------------------------------|
-----------------------------------------------------|
-11-5---------8-5----------7-4---------4-------7-----|
-13-7--------10-7----------9-6---------6-------9-----|
-------0-0-0--------0-0-0-------0-0-0-----0-0-----0-0|
       * * *        * * *       * * *     * *     * *

L
-------------------------------------------------------|
-------------------------------------------------------|
-------------------------------------------------------|
-12-9---------12-9--------11-8---------10-------15-----|
-10-7---------10-7---------9-6----------8-------13-----|
-10-7--0-0-0--10-7--0-0-0--9-6--0-0-0---8--0-0--13--0-0|
       * * *        * * *       * * *      * *      * *
R
-------------------------------------------------------|
-------------------------------------------------------|
-------------------------------------------------------|
--8-5---------8-5----------7-4---------10-------15-----|
-10-7--------10-7----------9-6----------8-------13-----|
-------0-0-0--------0-0-0-------0-0-0---8--0-0--13--0-0|
       * * *        * * *       * * *      * *      * *




1;29

L
---------------------------------------------------------------------|
---------------------------------------------------------------------|
---------------------------------------------------------------------|
---------------------------------------------------------------------|
-7-------------5-7-8--------3--------7------7-7--5-7-7------7-7--5-7-|
-5--5555555555-3-5-6-666666-1-111111-5-5555-5-5--3-5-5-5555-5-5--3-5-|
    **********       ******   ******   ****            ****
R
---------------------------------------------------------------------|
---------------------------------------------------------------------|
---------------------------------------------------------------------|
---------------------------------------------------------------------|
-7-------------5-7-8--------3--------7------7-7--5-7-7------7-7--5-7-|
-5-------------3-5-6--------1--------5------5-5--3-5-5------5-5--3-5-|
   |                 |        |        |               | 

         
L
------------------------------------------------------------------|
------------------------------------------------------------------|
------------------------------------------------------------------|
------------------------------------------------------------------|
7------------578--------12--------------11------77-577------77-57-|
5-5555555555-356-666666-10-101010101010--9-9999-55-355-5555-55-35-|
  **********     ******     * * * * * *    ****        ****
R
------------------------------------------------------------------|
------------------------------------------------------------------|
------------------------------------------------------------------|
------------------------------------------------------------------|
-7-----------578--------12--------------11------77-577------77-57-|
-5-----------356--------10---------------9------55-355------55-35-|
   |            |         |                |          |


1:39

B
---------------------------------------------------------------------|
---------------------------------------------------------------------|
---------------------------------------------------------------------|
---------------------------------------------------------------------|
-7-------------5-7-8--------3--------7------7-7--5-7-7------7-7--5-7-|
-5--5555555555-3-5-6-666666-1-111111-5-5555-5-5--3-5-5-5555-5-5--3-5-|
    **********       ******   ******   ****            ****

------------------------------------------------------------------|
------------------------------------------------------------------|
------------------------------------------------------------------|
------------------------------------------------------------------|
7------------578--------12--------------11------77-577------77-57-|
5-5555555555-356-666666-10-101010101010--9-9999-55-355-5555-55-35-|
  **********     ******     * * * * * *    ****        ****

----------------------------------------------------------------|
----------------------------------------------------------------|
----------------------------------------------------------------|
----------------------------------------------------------------|
7------------5-7-8--------3--------7------7-7--5-7-7------77-57-|
5-5555555555-3-5-6-666666-1-111111-5-5555-5-5--3-5-5-5555-55-35-|
  **********       ******   ******   ****            ****

------------------------------------------------------------------|
------------------------------------------------------------------|
------------------------------------------------------------------|
------------------------------------------------------------------|
7------------578--------12--------------11------77-577------77-57-|
5-5555555555-356-666666-10-101010101010--9-9999-55-355-5555-55-35-|
  **********     ******     * * * * * *    ****        ****



1:58

L
--------------------------------------------------------|
------------------------__------------------------------|
-----------------------/  \-----------------------------|
--9------------------9-10-9-7-9-----------10-----7------|
--7----------------7-7/-8\7-5-7------------8-----5------|
----000--00000-0-7--------------000--00000----000---000-|
    ***  ***** * * *            ***  *****    ***   ***
R
-------------------------------------------------------|
-----------------------__------------------------------|
----------------------/  \----------------10-----7-----|
--9----------------9-9-10-9-7-9-----------10-----7-----|
--7--------------7---7/-8\7-5-7------------8-----5-----|
----000--00000-7----------------000-00000----000---000-|
    ***  ***** * *              *** *****    ***   ***

L
--------------------------------------------------------|
-----------------------__-------------------------------|
----------------------/  \------------------------------|
--9------------------9-10-9-7-9------------12-----7-----|
--7----------------7-7/-8\7-5-7------------10-----5-----|
----000--00000-0-7--------------000--00000----000---000-|
    ***  ***** * *              ***  *****    ***   ***
R
--------------------------------------------------------|
-----------------------__-------------------------------|
----------------------/  \-----------------12-----7-----|
--9----------------9-9-10-9-7-9------------12-----7-----|
--7--------------7---7/-8\7-5-7------------10-----5-----|
----000--00000-7----------------000--00000----000---000-|
    ***  ***** * *              ***  *****    ***   ***

L
--------------------------------------------------------|
------------------------__------------------------------|
-----------------------/  \-----------------------------|
--9------------------9-10-9-7-9-----------10-----7------|
--7----------------7-7/-8\7-5-7------------8-----5------|
----000--00000-0-7--------------000--00000----000---000-|
    ***  ***** * *              ***  *****    ***   ***
R
-------------------------------------------------------|
-----------------------__------------------------------|
----------------------/  \----------------10-----7-----|
--9----------------9-9-10-9-7-9-----------10-----7-----|
--7--------------7---7/-8\7-5-7------------8-----5-----|
----000--00000-7----------------000-00000----000---000-|
    ***  ***** * *              *** *****    ***   ***


L
------------------------------------------------------|
----------------------__------------------------------|
---------------------/  \----------------13----10-----|
--9-----------------9-10-9-7-9-----------13----10-----|
--7---------------7-7/-8\7-5-7-----------11-----8-----|
----000-00000-0-7--------------000-00000----000---000-|
    *** ***** * *              *** *****    ***   ***
R
-------------------------------------------------------|
----------------------__-------------------------------|
---------------------/  \-----------------13----10-----|
--9---------------9-9-10-9-7-9------------13----10-----|
--7-------------7---7/-8\7-5-7------------11-----8-----|
----000-00000-7----------------000-00000-----000---000-|
    *** ***** * *              *** *****     ***   ***   






2:13


-0--0--------------------------------------------------|
-0--0--------------------------------0-----------0-----|
-4--4--------------------0--------------0-----------3--|
-2--2------2-3--2------2----2------2-----------2-------|
-2--2----2-----------2-----------2-----------2---------|
-0--0--0-----------0-----------0-----------0-----------|
       * * *       * * *       * * *       * * *

---------------------------------------------|
-------0-----------0-----------0-------------|
-----3----3------3----3------3----3----------|
---0-----------0-----------0-------------0---|
-1-----------1-----------1-------------0-----|
-------------------------------------0-------|
 * * *       * * *       * *  *      * * *




-0--0--------------------------------------------------|
-0--0--------------------------------0-----------0-----|
-4--4--------------------0--------------0-----------3--|
-2--2------2-3--2------2----2------2-----------2-------|
-2--2----2-----------2-----------2-----------2---------|
-0--0--0-----------0-----------0-----------0-----------|
       * * *       * * *       * * *       * * *

---------------------------------------------|
-------0-----------0-----------0-------------|
-----3----3------3----3------3----3----------|
---0-----------0-----------0-------------0---|
-1-----------1-----------1-------------0-----|
-------------------------------------0-------|
 * * *       * * *       * *  *      * * *




-0--0--------------------------------------------------|
-0--0--------------------------------0-----------0-----|
-4--4--------------------0--------------0-----------3--|
-2--2------2-3--2------2----2------2-----------2-------|
-2--2----2-----------2-----------2-----------2---------|
-0--0--0-----------0-----------0-----------0-----------|
       * * *       * * *       * * *       * * *

---------------------------------------------|
-------0-----------0-----------0-------------|
-----3----3------3----3------3----3----------|
---0-----------0-----------0-------------0---|
-1-----------1-----------1-------------0-----|
-------------------------------------0-------|
 * * *       * * *       * *  *      * * *




-0--0--------------------------------------------------|
-0--0--------------------------------0-----------0-----|
-4--4--------------------0--------------0-----------3--|
-2--2------2-3--2------2----2------2-----------2-------|
-2--2----2-----------2-----------2-----------2---------|
-0--0--0-----------0-----------0-----------0-----------|
       * * *       * * *       * * *       * * *

---------------------------------------------|
-------0-----------0-----------0-------------|
-----3----3------3----3------3----3----------|
---0-----------0-----------0-------------0---|
-1-----------1-----------1-------------0-----|
-------------------------------------0-------|
 * * *       * * *       * *  *      * * *




2:42

1
--H------------------------------------------------------------|
--7---V------------------------------~~~~~~~~~~~---------------|
---------------------------------------------------------------|
---------------------------------------------------------------|
---------------------------------------------------------------|
---------------------------------------------------------------|
2
---------------------------------------------------------------|
---------------------------------------------------------------|
-H-------------------------------------------------------------|
-9---V-------------------------------~~~~~~~~~~~---------------|
---------------------------------------------------------------|
---------------------------------------------------------------|
3 RYTHM
-------------------------------------------------------------------|
-------------------------------------------------------------------|
-------------------------------------------2----4-3----------------|
-------------------------------------------4----6-5----------------|
-------------------------------------------4----6-5----------------|
-222---222---222---222---------------222-222----4-3-------333-333--|
 ***   ***   ***   ***               *** **               *** *** 



L
--------------------------------------------------------------------|
--^-----^-----^-----^-----^---^---^-----^-----^---^------^----------|
-6-0---6-0---6-0---6-0---6-0-0-7-6-0---6-0---8-0-7-0----7-0----7/8--|
--------------------------------------------------------------------|
-----9-----9-----9-----9-------------9-----9---------10-----10------|
--------------------------------------------------------------------|
     *     *     *     *             *     *          *      *
R
---------------------------------------------------------------------|
--^-----^-----^-----^-----^---^-----^-----^-----^----^-----^---------|
11-0--11-0--11-0--11-0--11-0-0-12-11-0--11-0--13-0-12-0--12-0---12/13|
---------------------------------------------------------------------|
-----9-----9-----9-----9---------------9-----9---------10-----10-----|
---------------------------------------------------------------------|
     *     *     *     *               *     *          *      *
3 RYTHM
-------------------------------------------------------------------|
-------------------------------------------------------------------|
-------------------------------------------2----4-3----------------|
-------------------------------------------4----6-5----------------|
-------------------------------------------4----6-5----------------|
-222---222---222---222---------------222-222----4-3-------333-333--|
 ***   ***   ***   ***               *** **               *** *** 

L
--------------------------------------------------------------------|
--^-----^-----^-----^-----^---^---^-----^-----^---^------^----------|
-6-0---6-0---6-0---6-0---6-0-0-7-6-0---6-0---8-0-7-0----7-0----7/8--|
--------------------------------------------------------------------|
-----9-----9-----9-----9-------------9-----9---------10-----10------|
--------------------------------------------------------------------|
     *     *     *     *             *     *          *      *
R
---------------------------------------------------------------------|
--^-----^-----^-----^-----^---^-----^-----^-----^----^-----^---------|
11-0--11-0--11-0--11-0--11-0-0-12-11-0--11-0--13-0-12-0--12-0---12/13|
---------------------------------------------------------------------|
-----9-----9-----9-----9---------------9-----9---------10-----10-----|
---------------------------------------------------------------------|
     *     *     *     *               *     *          *      *
3 RYTHM
-------------------------------------------------------------------|
-------------------------------------------------------------------|
-------------------------------------------2----4-3----------------|
-------------------------------------------4----6-5----------------|
-------------------------------------------4----6-5----------------|
-222---222---222---222---------------222-222----4-3-------333-333--|
 ***   ***   ***   ***               *** **               *** *** 

L
--------------------------------------------------------------------|
--^-----^-----^-----^-----^---^---^-----^-----^---^------^----------|
-6-0---6-0---6-0---6-0---6-0-0-7-6-0---6-0---8-0-7-0----7-0----7/8--|
--------------------------------------------------------------------|
-----9-----9-----9-----9-------------9-----9---------10-----10------|
--------------------------------------------------------------------|
     *     *     *     *             *     *          *      *
R
---------------------------------------------------------------------|
--^-----^-----^-----^-----^---^-----^-----^-----^----^-----^---------|
11-0--11-0--11-0--11-0--11-0-0-12-11-0--11-0--13-0-12-0--12-0---12/13|
---------------------------------------------------------------------|
-----9-----9-----9-----9---------------9-----9---------10-----10-----|
---------------------------------------------------------------------|
     *     *     *     *               *     *          *      *
3 RYTHM
-------------------------------------------------------------------|
-------------------------------------------------------------------|
-------------------------------------------2----4-3----------------|
-------------------------------------------4----6-5----------------|
-------------------------------------------4----6-5----------------|
-222---222---222---222---------------222-222----4-3-------333-333--|
 ***   ***   ***   ***               *** **               *** *** 

L
--------------------------------------------------------------------|
--^-----^-----^-----^-----^---^---^-----^-----^---^------^----------|
-6-0---6-0---6-0---6-0---6-0-0-7-6-0---6-0---8-0-7-0----7-0----7/8--|
--------------------------------------------------------------------|
-----9-----9-----9-----9-------------9-----9---------10-----10------|
--------------------------------------------------------------------|
     *     *     *     *             *     *          *      *
R
---------------------------------------------------------------------|
--^-----^-----^-----^-----^---^-----^-----^-----^----^-----^---------|
11-0--11-0--11-0--11-0--11-0-0-12-11-0--11-0--13-0-12-0--12-0---12/13|
---------------------------------------------------------------------|
-----9-----9-----9-----9---------------9-----9---------10-----10-----|
---------------------------------------------------------------------|
     *     *     *     *               *     *          *      *
3 RYTHM
-------------------------------------------------------------------|
-------------------------------------------------------------------|
-------------------------------------------2----4-3----------------|
-------------------------------------------4----6-5----------------|
-------------------------------------------4----6-5----------------|
-222---222---222---222---------------222-222----4-3-------333-333--|
 ***   ***   ***   ***               *** **               *** *** 




3:06


--------------------------------------------------|
--------------------------------------------------|
--------------------------------------------------|
-4-4--------4-4--------4-4--------12-12-----------|
-2-2--2-2-2-2-2--2-2-2-2-2--2-2-2-10-10-----------|
-2-2--2-2-2-2-2--2-2-2-2-2--2-2-2-10-10--10-10-10-|
      * * *      * * *      * * *        *   *  *

------------------------------------------------|
------------------------------------------------|
------------------------------------------------|
-9-9--------9-9--------9-9---------8-8----------|
-7-7--------7-7--------7-7---------6-6----------|
-7-7--0-0-0-7-7--0-0-0-7-7--0-0-0--6-6--2-2-2---|
      * * *      * * *      * * *       * * *


-----------------------------------------------|
-----------------------------------------------|
-----------------------------------------------|
-4-4--------4-4--------4-4--------12-12--------|
-2-2--2-2-2-2-2--2-2-2-2-2--2-2-2-10-10--------|
-2-2--2-2-2-2-2--2-2-2-2-2--2-2-2-10-10--0-0-0-|
      * * *      * * *      * * *        * * *

------------------------------------------------|
------------------------------------------------|
------------------------------------------------|
-9-9--------9-9--------9-9---------8-8----------|
-7-7--------7-7--------7-7---------6-6----------|
-7-7--0-0-0-7-7--0-0-0-7-7--0-0-0--6-6--2-2-2---|
      * * *      * * *      * * *       * * *




3:20

SOLO W/PREVIOUS RYTHM CONTINUES

-14----------------14-15-14-12----------------------------|
----15-14-12-14-15-------------15-14-12---15---11---14----|
----------------------------------------------------------|
----------------------------------------------------------|
----------------------------------------------------------|
----------------------------------------------------------|

----------------------------------------------------------|
---------------------11-----------------------------------|
----------9-12-11-12----12-11-9-9/11----------------------|
--------9------------------------------12---11---12-------|
-7-9-10---------------------------------------------------|
----------------------------------------------------------|
 * *  * *


-------------------14----------------------------------15----------------|
-12----14----15----------15----14----12----14----15----------15----14----|
----12----12----12----12----12----12----12----12----12----12----12----12-|
-------------------------------------------------------------------------|
-------------------------------------------------------------------------|
-------------------------------------------------------------------------|
     *     *     *     *     *     *     *     *     *     *     *     *


-------------------15----------------------------------------------------|
-12----14----15----------15----14----12----14----15----14----12----11----|
----12----12----12----12----12----12----12----12----12----12----12----12-|
-------------------------------------------------------------------------|
-------------------------------------------------------------------------|
-------------------------------------------------------------------------|
     *     *     *     *     *     *     *     *     *     *     *     *


SOLO
-----------------------------------H---------------------------|
-12--------------------------------9---V-----------------------|
---------------------------------------------------------------|
---------------------------------------------------------------|
---------------------------------------------------------------|
---------------------------------------------------------------|
L
---------------------------------------------------------------------|
---------------------------------------------------------------------|
---------------------------------------------------------------------|
---------------------------------------------------------------------|
-9-------------7-910--------5--------9------9-9--7-9-9------9-9--7-9-|
-7--7777777777-5-7-8-888888-3-333333-7-7777-7-7--5-7-7-7777-7-7--5-7-|
    **********       ******   ******   ****            ****
R
---------------------------------------------------------------------|
---------------------------------------------------------------------|
---------------------------------------------------------------------|
---------------------------------------------------------------------|
-9-------------7-910-------5---------9------7-7--5-9-9------9-9--7-9-|
-7-------------5-7-8-------3---------7------7-7--5-7-7------7-7--5-7-|
   |                 |       |         |               |




B
-----------------------------------------------------------------------|
-----------------------------------------------------------------------|
-----------------------------------------------------------------------|
-----------------------------------------------------------------------|
9------------7910--------14--------------13----------99-79-9------99-79|
7-7777777777-57-8-888888-12-121212121212-11-11111111-77-57-7-7777-77-57|
  **********      ******     * * * * * *     * * * *         ****

---------------------------------------------------------------------|
---------------------------------------------------------------------|
---------------------------------------------------------------------|
---------------------------------------------------------------------|
-9-------------7-910--------5--------9------9-9--7-9-9------9-9--7-9-|
-7--7777777777-5-7-8-888888-3-333333-7-7777-7-7--5-7-7-7777-7-7--5-7-|
    **********       ******   ******   ****            ****

-----------------------------------------------------------------------|
-----------------------------------------------------------------------|
-----------------------------------------------------------------------|
-----------------------------------------------------------------------|
9------------7910--------14--------------13----------99-79-9------99-79|
7-7777777777-57-8-888888-12-121212121212-11-11111111-77-57-7-7777-77-57|
  **********      ******     * * * * * *     * * * *         ****


3:54

1
---------------------------------------------------------------|
---------------------------------------------------------------|
--14------12--14--15--10------910tr~~~~~~~~~~~~~~~~~~~~~~~~~~~-|
---------------------------------------------------------------|
---------------------------------------------------------------|
---------------------------------------------------------------|
2
---------------------------------------------------------------|
---------------------------------------------------------------|
---------------------------------------------------------------|
---------------------------------------------------------------|
--7--------5---7---8---3-----78tr~~~~~~~~~~~~~~~~~~~~~~~~~~~~~-|
---------------------------------------------------------------|
RYTHM
--------------------------------------------------------------|
--------------------------------------------------------------|
--------------------------------------------------------------|
--------------------------------------------------------------|
7------------578--------3--------7--------7-57-7--------7-5-7-|
5-555-555-55-356-666-66-1-111-11-5-555-55-5-35-5-555-55-5-3-5-|
  *** *** **     *** **   *** **   *** **        *** **


1
---------------------------------------------------------------|
-----------------------15----1415tr~~~~~~~~~~~~~~~~~~~~~~~~~~~-|
--14------12--14--15-------------------------------------------|
---------------------------------------------------------------|
---------------------------------------------------------------|
---------------------------------------------------------------|
2
---------------------------------------------------------------|
---------------------------------------------------------------|
---------------------------------------------------------------|
-----------------------8-----78tr~~~~~~~~~~~~~~~~~~~~~~~~~~~~~-|
--7--------5---7---8-------------------------------------------|
---------------------------------------------------------------|
RYTHM
--------------------------------------------------------------------|
--------------------------------------------------------------------|
--------------------------------------------------------------------|
--------------------------------------------------------------------|
7------------578--------12-------------7--------7-5-7-7--------7-5-7|
5-555-555-55-356-666-66-10-101010-1010-5-555-55-5-3-5-5-555-55-5-3-5|
  *** *** **     *** **     * * *  * *   *** **         *** **




1
---------------------------------------------------------------|
---------------------------------------------------------------|
--14------12--14--15--10------910tr~~~~~~~~~~~~~~~~~~~~~~~~~~~-|
---------------------------------------------------------------|
---------------------------------------------------------------|
---------------------------------------------------------------|
2
---------------------------------------------------------------|
---------------------------------------------------------------|
---------------------------------------------------------------|
---------------------------------------------------------------|
--7--------5---7---8---3-----78tr~~~~~~~~~~~~~~~~~~~~~~~~~~~~~-|
---------------------------------------------------------------|
RYTHM
--------------------------------------------------------------|
--------------------------------------------------------------|
--------------------------------------------------------------|
--------------------------------------------------------------|
7------------578--------3--------7--------7-5-7-7--------7-5-7|
5-555-555-55-356-666-66-1-111-11-5-555-55-5-3-5-5-555-55-5-3-5|
  *** *** **     *** **   *** **   *** **         *** **


1
---------------------------------------------------------------|
-----------------------15----1415tr~~~~~~~~~~~~~~~~~~~~~~~~~~~-|
--14------12--14--15-------------------------------------------|
---------------------------------------------------------------|
---------------------------------------------------------------|
---------------------------------------------------------------|
2
---------------------------------------------------------------|
---------------------------------------------------------------|
---------------------------------------------------------------|
-----------------------8-----78tr~~~~~~~~~~~~~~~~~~~~~~~~~~~~~-|
--7--------5---7---8-------------------------------------------|
---------------------------------------------------------------|
RYTHM
----------------------------------------------------------------------|
----------------------------------------------------------------------|
----------------------------------------------------------------------|
----------------------------------------------------------------------|
7------------578--------12-------------7--------7-57-7--------7-5-7-7-|
5-555-555-55-356-666-66-10-101010-1010-5-555-55-5-35-5-555-55-5-3-5-5\|
  *** *** **     *** **     * * *  * *   *** **        *** **
Добавлено: 23.09.2013
Вам также может быть интересно:
Другие материалы по этой песне:

Страница создана 23.09.2013
http://primanota.ru/old-mans-child/war-of-fidelity-chords.htm
Привет, Гость.
Предлагаем пройти революционный курс по гитаре.
Подарок от PrimaNota.Ru, забирай!