PrimaNota.ru - самый крупный в мире бесплатный архив песенных текстов, аккордов, табулатур и нот


Old Mans Child - Swallowed By A Buried One - текст песни, таба, видео

Регистрация Запомнить меня
Войти через:  Facebook Google Twitter Vk Yandex Mail.ru

Old Mans Child - Swallowed By A Buried One - текст песни, таба, видео

Печатать
Просмотров: 68
		   Email me: iplaybass@ev1.net             

song: Swallowed by a Buried One
band: Old Man's Child
album: Born of the Flickering
tuning: standard 


both guitars
unless otherwise noted
E-------------------------------------------------------------|
B-------------------------------------------------------------|
G-------------------------------------------------------------|
D-------------------------------4444-2222-0000------2222-4444-|
A----------------3333--------------------------2222-----------|
E-3333-2222-0000------2222-3333-------------------------------|


E-------------------------------------------------------------|
B-------------------------------------------------------------|
G-------------------------------2222--------------------------|
D------------------------------------5555-4444----------------|
A----------------3333--------------------------2222-----------|
E-3333-2222-0000------2222-3333-------------------------------|
repeat


chorus
E----------------------------------------------------|
B----------------------------------------------------|
G--------------------------4-4-2-2-------------------|
D-5-5-4-4------5-5-4-4-------------5-5-4-4-4-4-4-4---|
A----------------------------------------------------|
E---------0-0----------0-0---------------------------|

E----------------------------------------------------|
B----------------------------------------------------|
G---------------------------------2-2----------------|
D-5-5-4-4-----5-5-4-4-----4-4-5-5--------------------|
A-------------------------------------2-2-2-2-2-2----|
E---------0-0---------0-0----------------------------|


before verse

guitar 1
|E---------------------------------------------------|
|B---------------------------------------------------|
|G-------------------------------------9--7--6-------|
|D-5-----4-----5-----4-----5-----4-----7--5--4-------|
|A-7-7-7-7-7-7-7-7-7-7-7-7-7-7-7-7-7-7---------------|
|E---------------------------------------------------|
|
|guitar 2
|E---------------------------------------------------|
|B---------------------------------------------------|
|G-------------------------------------9--7--6-------|
|D-------------------------------------7--5--4-------|
|A-2-------------------------------------------------|
|E-0-------------------------------------------------|


guitar 1
|E---------------------------------------------------|
|B---------------------------------------------------|
|G-------------------------------------6--7--6-------|
|D-5-----4-----5-----4-----5-----4-----4--5--4-------|
|A-7-7-7-7-7-7-7-7-7-7-7-7-7-7-7-7-7-7---------------|
|E---------------------------------------------------|
|
|guitar 2
|E---------------------------------------------------|
|B---------------------------------------------------|
|G-------------------------------------6--7--6-------|
|D-------------------------------------4--5--4-------|
|A-2-------------------------------------------------|
|E-0-------------------------------------------------|
repeat

during verse, both guitars play the "guitar 1" part. 


then pre-chorus
E---------------------------------------------------|
B---------------------------------------------------|
G---------------------------------------------------|
D------9-9------8-8------9-9------8-8---------------|
A-2----7-7-2----6-6-2----7-7-2----6-6---------------|
E-0--------0--------0--------0----------------------|


now repeat everything so far, except for the before verse part,
just go from the chorus straight in to the verse.


interlude
guitar 1
|E---------------------------------------------------------------|
|B---------------------------------------------------------------|
|G---------------------------------------------------------------|
|D------5555-4444------7777-4444------11-4444-11-2222-55-4444-11-|
|A-2222-----------3333-----------2222----------------------------|
|E---------------------------------------------------------------|
|
|guitar 2
|E---------------------------------------------------------------|
|B---------------------------------------------------------------|
|G---------------------------------------------------------------|
|D-4-------------------7777-4444-4---------------2222-55-4444-11-|
|A-2--------------3333-----------2-------------------------------|
|E---------------------------------------------------------------|



before and during the next set of verses
E-----------------------------------------------------------------|
B-----------------------------------------------------------------|
G-----------------------------------------------------------------|
D------22-5555-22------77-4444---------11-4444-11-2222-55-4444-11-|
A-----------------3333---------33-2222----------------------------|
E-0000------------------------------------------------------------|
repeat as needed


E---------------------------------------------------|
B---------------------------------------------------|
G---------------------------------------------------|
D-2222-55-4444-11-----------------------------------|
A---------------------------------------------------|
E---------------------------------------------------|
repeat this 4x
then do the pre-chorus



this is before the solo
guitar 1
|E-------------3~-----------------2~---------------|
|B-----------5~--5~-------------4~--4~-------------|
|G---------4~------4~---------3~------3~-----------|
|D-------2~-----------------1~---------------------|
|A-2------------------2----------------------------|
|E-0------------------0----------------------------|
|
|guitar 2
|E-------------------------------------------------|
|B-------------------------------------------------|
|G-4-----4------------4-----3----------------------|
|D-2-----2------------2-----1----------------------|
|A-------------------------------------------------|
|E-------------------------------------------------|



guitar 1
|E-------------3~-----------------2~---------------|
|B-----------5~--5~-------------4~--4~-------------|
|G---------4~------4~---------3~------3~-----------|
|D-------2~-----------------1~---------------------|
|A-2------------------2----------------------------|
|E-0------------------0----------------------------|
|
|guitar 2
|E-------------------------------------------------|
|B-------------------------------------------------|
|G-4-----4------------4-----3----------------------|
|D-2-----2------------2-----1----------------------|
|A-------------------------------------------------|
|E-------------------------------------------------|
repeat 




as guitar 1 repeats the above
guitar 2 plays this along with the keyboard
E-------------------------------------------------|
B-------------------------------------------------|
G------4----5--4--2---------------------2---------|
D-2-----------------5--4--2----------5-----5-4--1-|
A------------------------------2------------------|
E-------------------------------------------------|

E------------------------------------7--5--3-2~~--|
B-------------------------------------------------|
G------4----5--4--2-------------------------------|
D-2-----------------5--4--2-----------------------|
A------------------------------2------------------|
E-------------------------------------------------|




E---------------------------------------------------|
B---------------------------------------------------|
G---------------------------------------------------|
D-2222-55-4444-11-----------------------------------|
A---------------------------------------------------|
E---------------------------------------------------|
repeat this 4x

then intro, chorus, verse.
     
Добавлено: 19.11.2013
Другие материалы по этой песне:

Страница создана 14.04.2012
http://primanota.ru/old-mans-child/swallowed-by-a-buried-one-chords.htm
Привет, Гость.
Предлагаем пройти революционный курс по гитаре.
Подарок от PrimaNota.Ru, забирай!