PrimaNota.ru - самый крупный в мире бесплатный архив песенных текстов, аккордов, табулатур и нот


Old Mans Child - My Evil Relations - таба, видео

Регистрация Запомнить меня
Войти через:  Facebook Google Twitter Vk Yandex Mail.ru

Old Mans Child - My Evil Relations - таба, видео

Печатать
Просмотров: 98
this is My Evil Revelations as played by Old Mans Child off of Ill-Natured
Spiritual Invasion
standard tuning
(ebgdae)
enjoy!
riff 1
guitar 1
repeat 8x
|E ---------------------------------------------------------|
|B ---------------------------------------------------------|
|G ---------------------------------------------------------|
|D -----9---9-9---9---9-9---7---7/10------------------------|
|A -----7---7-7---7---7-7---5---5/8-------------------------|
|E -0-00--00----00--00----00--00----------------------------|
|										|
|guitar 2									|
|played with the above as necessary					|
|E ---------------------------------------------------------|
|B ---------------------------------------------------------|
|G ---------------------------------------------------------|
|D -------------------------7~------------------------------|
|A -2~----------------------5~------------------------------|
|E -0~------------------------------------------------------|
|										|
|E ---------------------------------------------------------|
|B ---------------------------------------------------------|
|G ---------------------------------------------------------|
|D -------------------------4~------------------------------|
|A -2~----------------------2~------------------------------|
|E -0~------------------------------------------------------|

riff 2
repeat 4x
E ----------------------------------------------------------|
B ----------------------------------------------------------|
G ----------------------------------------------------------|
D -----5----4-5---5---4-5---4---4/~-------------------------|
A -----7----5-7---7---5-7---5---5/8~------------------------|
E -0-00---00----00--00----00--00----------------------------|

riff 3(verse)
repeat 4x
E ----------------------------------------------------------|
B ----------------------------------------------------------|
G ----------------------------------------------------------|
D ---------------4-----4-8-----------------4------4---------|
A ---------------2-22222-666-7-------------2-2----2---------|
E -000-00000-0000------------000-00000-0000---0000--3322----|

riff 4
repeat 2x
and then 2x more under the next verse
guitar 1
|E ---------------------------------------------------------|
|B ---------------------------------------------------------|
|G ---------------------------------------------------------|
|D ---------------------------------------------------------|
|A ------5-7-9------7-9-10------9-10-12------10-12-14-------|
|E -0-00-------0-00--------0-00---------0-00----------------|
|										|
|guitar 2									|
|E ---------------------------------------------------------|
|B ---------------------------------------------------------|
|G ---------------------------------------------------------|
|D ---------------------------------------------------------|
|A ---------------------------------------------------------|
|E -0-00-3-5-7--0-00-5-7-8--0-00-7-8-10--0-00-8-10-12-------|

|guitar 1
|E ---------------------------------------------------------|
|B ---------------------------------------------------------|
|G ---------------------------------------------------------|
|D ---------------------------------------------------------|
|A -----------12-10-9--------10-8-7--------9-7-6------------|
|E -10--10-10---------8--8-8--------7--7-7------------------|
|										|
|guitar 2									|
|E ---------------------------------------------------------|
|B ---------------------------------------------------------|
|G ---------------------------------------------------------|
|D ---------------------------------------------------------|
|A ---------------------------------------------------------|
|E -10--10-10-10-8-7--8--8-8-8-6-5--7--7-7-7-5-4------------|


for the chorus
repeat riff 2 2x
and this riff 5
and do it twice
E ----------------------------------------------------------|
B ----------------------------------------------------------|
G ----------------------------------------------------------|
D -5-------7----------12--11--------------------------------|
A -3-------5----------10--9---------------------------------|
E ----------------------------------------------------------|

repeat riff 3 twice
and here's riff 6
repeat 5x and another 2x under next
verse
E ----------------------------------------------------------|
B ----------------------------------------------------------|
G ----------------------------------------------------------|
D -9--------5-----------------9---------4-------------------|
A -7--------3-----------------7---------2-------------------|
E ----------------------------------------------------------|

|solo
|this is the piano solo written as a guitar part
|it may not be right but its all i can do for now
|the second time you play this piano riff, play the (8-9-8)
|an octave higher
|E ---------------------------------------------------------|
|B ---------------------------------------------------------|
|G -9---9---9------8-9-8--8-9-8---9---9---9---9-8-8---9-8-8-|
|D ----------10--10-----10-----------------9-----9-9-----9--|
|A ---------------------------------------------------------|
|E ---------------------------------------------------------|
|										|
|this is the guitar under the solo piano				|
|E ---------------------------------------------------------|
|B ---------------------------------------------------------|
|G ---------------------------------------------------------|
|D -9--999-9-999-5-555-555-5-55555--------------------------|
|A -7--777-7-777-3-333-333-3-33333--------------------------|
|E ---------------------------------------------------------|
|
|E ---------------------------------------------------------|
|B ---------------------------------------------------------|
|G ---------------------------------------------------------|
|D -9-999-999--999-4-444-444-4-44444------------------------|
|A -7-777-777--777-2-222-222-2-22222------------------------|
|E ---------------------------------------------------------|

after the solo play riff 4 same as before
and then the chorus

Добавлено: 24.06.2013
Другие материалы по этой песне:
  • Аккорды и текст

Страница создана 24.06.2013
http://primanota.ru/old-mans-child/my-evil-relations-chords.htm
Привет, Гость.
Предлагаем пройти революционный курс по гитаре.
Подарок от PrimaNota.Ru, забирай!