PrimaNota.ru - самый крупный в мире бесплатный архив песенных текстов, аккордов, табулатур и нот


Of Mice And Men - Second Sebring - таба, видео

Регистрация Запомнить меня
Войти через:  Facebook Google Twitter Vk Yandex Mail.ru

Of Mice And Men - Second Sebring - таба, видео

Печатать
Просмотров: 169
Of Mice & Men
Second & Sebring
Awesome band! Just started playing notes...and this is what I got! Enjoy!

I wont go in to strumming patterns... either...sorry!
Tuning: Drop C#

(:00-:21) “I believe its time for me...”
d#|---------------------------------------------------|
A#|---------------------------------------------------|
F#|--------10----------------10-----------------------|
C#|-0-00----x(x12)----0-00----x(x12)-----8------7-----| (x2)
G#|-0-00----8---------0-00----8----------8(x12)-7(x12)|
C#|-0-00--------------0-00---------------8------7-----|

(:21-:32) “When I breakthrough...”
d#|---------------------|
A#|---------------------|
F#|---------------------|
C#|--0~-0~----8~--7~\---| 
G#|--0~-0~----8~--7~\---|
C#|--0~-0~----8~--7~\---|

(:32-:53) ”This time, ill make you...”
d#|----------------------------------------------------------------|
A#|----------------------------------------------------------------|
F#|-------10----------------10-------14----------------------------|
C#|-0-00---x(x12)---0-00-----x(x12)or-x(x12)--8------7------9------| (x2)
G#|-0-00---8--------0-00-----8-------12-------8(x12)-7(x6)-9(x6)--|
C#|-0-00------------0-00----------------------8------7------9------|

Breakdown
(:55-1:02) “So This time ill make you proud.”
d#|----------------------------|
A#|----------------------------|
F#|----------------------------|
C#|-0000-0000--0-0--0000-0000--| (x2) 
G#|-0000-0000--0-0--0000-0000--|
C#|-0000-0000--0-0--0000-0000--|

(1:02-1:08) “Proud of who you raised up.”
d#|----------------------------|
A#|----------------------------|
F#|----------------------------|
C#|-0000-0000--0-0--0000-0000--| (x2) 
G#|-0000-0000--0-0--0000-0000--|
C#|-0000-0000--0-0--0000-0000--|
    **** ****  * *  **** ****

(1:09-1:15) “You know that I will.”
d#|----------------------------------------------------------------|
A#|----------------------------------------------------------------|
F#|----------------------------------------------------------------|
C#|-8888~-8888~--8~-8~--8888~-8888~-7777~-7777~-7~-7~--9999~-9999~-|  
G#|-8888~-8888~--8~-8~--8888~-8888~-7777~-7777~-7~-7~--9999~-9999~-|
C#|-8888~-8888~--8~-8~--8888~-8888~-7777~-7777~-7~-7~--9999~-9999~-|
    ****  ****   *  *   ****  ****  **** ****   *  *  ****   ****

(1:15-1:25) “Come back so I can say...”
d#|-----------------------------------------|
A#|-----------------------------------------|
F#|-----------------------------------------|
C#|-0~--88~--7~------------0~--88~--7~7\----|
G#|-0~--88~--7~--9-8-7-0~--0~--88~--7~7\----|
C#|-0~--88~--7~--9-8-7-0~--0~--88~--7~7\----|

(1:26-1:48) “... my troubled head when your away...”	   4th time do this
d#|-----------------------------------------------------------|---------------|
A#|-----------------------------------------------------------|---------------|
F#|-----------------------------------------------------------|---------------|(x4)
C#|-0------------------88------------------77-----------------|---------------|
G#|-0------------------88------------------77---------9-8-7-0-|--9-8-7(x2)----|
C#|-0-000-000-000-000--88-888-888-888-888--77-777-777-9-8-7-0-|---------------|
      *** *** *** *** ** *** *** *** ***  **  *** ***

Breakdown 2
(1:49-1:56) ”Minds!”
d#|-----------------------------|
A#|-----------------------------|
F#|-----------------------------|
C#|-0~-0~-0~0~0~-0~-0~---00-----|(x2)
G#|-0~-0~-0~0~0~-0~-0~---00-----|
C#|-0~-0~-0~0~0~-0~-0~---00-----|
    *  *  * * *  *  *   **
(1:56-2:04) ”I hope...”			(2:05
d#|---------|----------------------|     |--------|
A#|---------|----------------------|     |--------|
F#|---------|----------------------|     |--------|
C#|-0-0-00--|-0-0-00-0-0-00-0-0-00-|(x2) |--------|
G#|-0-0-00--|-0-0-00-0-0-00-0-0-00-|     |--9-8-7-|
C#|-0-0-00--|-0-0-00-0-0-00-0-0-00-|     |--------|
                                **
(2:06-2:12) “I hope You smile.”
d#|----------------------|
A#|----------------------|
F#|----------------------|
C#|-0-0-00-0-0-00-0-0-00-|(x2)
G#|-0-0-00-0-0-00-0-0-00-|
C#|-0-0-00-0-0-00-0-0-00-|
    * * ** * * ** * * **  

(2:13-2:26) “This Cant. We wont Know”
d#|-------------------|
A#|-------------------|
F#|-7--9--10--12--14--|
C#|-x--x---x---x---x--|
G#|-5--7---8--10--12--|
C#|-------------------|
(2:26-End) “This is not. What it is...”
d#|--------------------------------|
A#|--------------------------------|
F#|--------------------------------|
C#|-0----8---3---5-----------------|
G#|-0----8---3---5-----------------|
C#|-0----8---3---5-----------------|
Figure Out the strumming pattern. Oh and at the end you just hit each Chord 1

| *  Palm Mute
| /  slide up
| \  slide down
| h  hammer-on
| p  pull-off
| ~  vibrato
| +  harmonic
| x  Mute note
============================================================================
Добавлено: 03.10.2013
Другие материалы по этой песне:
  • Аккорды и текст

Страница создана 03.10.2013
http://primanota.ru/of-mice-and-men/second-sebring-chords.htm
Привет, Гость.
Предлагаем пройти революционный курс по гитаре.
Подарок от PrimaNota.Ru, забирай!