PrimaNota.ru - самый крупный в мире бесплатный архив песенных текстов, аккордов, табулатур и нот


Of Mice And Men - Would You Still Be There - таба, видео

Регистрация Запомнить меня
Войти через:  Facebook Google Twitter Vk Yandex Mail.ru

Of Mice And Men - Would You Still Be There - таба, видео

Печатать
Просмотров: 291
Авторы: David Bendeth, Austin Carlile, Phil Manansala, Valentino Arteaga, Alan Ashby, Aaron Pauley

Would You Still Be There Tabs 
Artist: Of Mice & Men
Album: Restoring Force
Tab by: http://www.youtube.com/jamesmouamusic


Of Mice & Men - Would You Still Be There (Official Video) 
http://www.youtube.com/watch?v=jofcYW0LifQ
 
Of Mice & Men FB page... 
https://www.facebook.com/ofmice 
 
Of Mice & Men Rise Records page... 
http://www.riserecords.com/press-assets-details.php?artist=Of_Mice_%26_Men_31


b: bend 
/: slide 
*: palm mute 
h: hammer on 
~: let it ring 
p: pinch harmonic 
/////: picking tremolo
x: scratch
po: pull off



INTRO:
D||-------------------------------------------------------------------------|
A||-------------------------------------------------------------------------|
F||-------------------------------------------------------5p----------------|
C||-10-0-0--00--0h2-2-x-0h2-2-x-------5-4--0h2-2--x0h2--5p--5p--------------|
G||-10-0-0--00--0h2-2-x-0h2-2-x-0-2h5------0h2-2--x0h2----------------------|
C||-10-0-0--00--0h2-2-x-0h2-2-x------------0h2-2--x0h2----------------------|


D||-------------------------------------------------------------------------|
A||-------------------------------------------------------------------------|
F||-------------------------------------------------------------------------|
C||-0h2-2-x-0h2-2-x-------5-4--0h2-2--x0h2----------------------------------|
G||-0h2-2-x-0h2-2-x-0-2h5------0h2-2--x0h2----------------------------------|
C||-0h2-2-x-0h2-2-x------------0h2-2--x0h2----------------------------------|



VERSE 1:
D||-------------------------------------------------------------------------|
A||-------------------------------------------------------------------------|
F||---------------------------------------------------------[REPEAT x2]-----|
C||-22-4h5po4---------222h4-----22-4h5po4---------4-------------------------|
G||-22--------222-555-----------22--------222-555---55----------------------|
C||-22--------------------------22------------------------------------------|
    **        *** *** **        **        *** ***

D||-------------------------------------------------------------------------|
A||-------------------------------------------------------------------------|
F||-------------------------------------------------------------------------|
C||-77-7h9po7------------777h9---77-7h9po7------------777h9-----------------|
G||-77--------777-101010---------77--------777-101010-----------------------|
C||-77---------------------------77-----------------------------------------|
    **        *** * * *          **        *** * * *  **

D||-------------------------------------------------------------------------|
A||-------------------------------------------------------------------------|
F||-------------------------------------------------------------------------|
C||-22-4h5po4---------222h4-----22-4h5po4----------4--------7~--5~----------|
G||-22--------222-555-----------22--------222-5555---55-----5~--3~----------|
C||-22--------------------------22------------------------------------------|
    **        *** *** **        **        *** **** 



CHORUS:
D||-------------------------------------------------------------------------|
A||-----------------------------------------------------------[REPEAT x2]---|
F||-------------------------------------------------------------------------|
C||-22-00-22/555555--22-00-22/555/777--22-00-22/555555--5-(x8)--------------|
G||-22-00-22/555555--22-00-22/555/777--22-00-22/555555--3-------------------|
C||-22-00-22/555555--22-00-22/555/777--22-00-22/555555--------0-0-000~------|



FILL-IN:
D||-------------------------------------------------------------------------|
A||-------------------------------------------------------------------------|
F||-------------------------------------------------------5p----------------|
C||-10-0-0--00--0h2-2-x-0h2-2-x-------5-4--0h2-2--x0h2--5p--5p--------------|
G||-10-0-0--00--0h2-2-x-0h2-2-x-0-2h5------0h2-2--x0h2----------------------|
C||-10-0-0--00--0h2-2-x-0h2-2-x------------0h2-2--x0h2----------------------|

D||-------------------------------------------------------------------------|
A||-------------------------------------------------------------------------|
F||-------------------------------------------------------------------------|
C||-0h2-2-x-0h2-2-x-------5-4--0h2-2--x0h2----------------------------------|
G||-0h2-2-x-0h2-2-x-0-2h5------0h2-2--x0h2----------------------------------|
C||-0h2-2-x-0h2-2-x------------0h2-2--x0h2----------------------------------|



VERSE 2:
D||-------------------------------------------------------------------------|
A||-------------------------------------------------------------------------|
F||---------------------------------------------------------[REPEAT x2]-----|
C||-22-4h5po4---------222h4-----22-4h5po4----------4------------------------|
G||-22--------222-555-----------22--------222-5555---55---------------------|
C||-22--------------------------22------------------------------------------|
    **        *** *** **        **        *** ****

D||-------------------------------------------------------------------------|
A||-------------------------------------------------------------------------|
F||-------------------------------------------------------------------------|
C||-77-9h12po9-----------777h9---77-9h12po9------------777h9----------------|
G||-77--------777-101010---------77--------777-101010-----------------------|
C||-77---------------------------77-----------------------------------------|
    **        *** * * *          **        *** * * *  **

D||-------------------------------------------------------------------------|
A||-------------------------------------------------------------------------|
F||-------------------------------------------------------------------------|
C||-22-4h5po4---------222h4-----22-4h5po4----------4--------7~--5~----------|
G||-22--------222-555-----------22--------222-5555---55-----5~--3~----------|
C||-22--------------------------22------------------------------------------|
    **        *** *** **        **        *** **** 



CHORUS:
D||-------------------------------------------------------------------------|
A||-----------------------------------------------------------[REPEAT x2]---|
F||-------------------------------------------------------------------------|
C||-22-00-22/555555--22-00-22/555/777--22-00-22/555555--5-(x8)--------------|
G||-22-00-22/555555--22-00-22/555/777--22-00-22/555555--3-------------------|
C||-22-00-22/555555--22-00-22/555/777--22-00-22/555555--------0-0-000~------|



BRIDGE:
D||-------------------------------------------------------------------------|
A||-------------------------------------------------------------------------|
F||--------------------------------------------------[REPEAT x2]------------|
C||-9-(x12)-12-(x12)-7-(x12)-5-(x12)----------------------------------------|
G||-7-------10-------5-------3----------------------------------------------|
C||-------------------------------------------------------------------------|



SOLO:
D||-12-12------------------------12-12-------14-14-14-14-14b----------------|
A||-------12-12-13-13-12-12-12b--------12-12--------------------------------|
F||-------------------------------------------------------------------------|
C||-------------------------------------------------------------------------|
G||-------------------------------------------------------------------------|
C||-------------------------------------------------------------------------|

D||-12-12-------------------------------------------------------------------|
A||-------12-12-13-13-12-12-12b--13-12-10h12po10-7/8-10-10b-8h10po8---------|
F||-----------------------------------------------------------------9~------|
C||-------------------------------------------------------------------------|
G||-------------------------------------------------------------------------|
C||-------------------------------------------------------------------------|



LAST CHORUS/END:
D||-------------------------------------------------------------------------|
A||-----------------------------------------------------------[REPEAT x2]---|
F||-------------------------------------------------------------------------|
C||-22-00-22/555555--22-00-22/555/777--22-00-22/555555--5-(x8)--------------|
G||-22-00-22/555555--22-00-22/555/777--22-00-22/555555--3-------------------|
C||-22-00-22/555555--22-00-22/555/777--22-00-22/555555--------0-0-0-00~-----|

D||-------------------------------------------------------------------------|
A||-------------------------------------------------------------------------|
F||-------------------------------------------------------5p----------------|
C||-10-0-0--00--0h2-2-x-0h2-2-x-------5-4--0h2-2--x0h2--5p--5p--------------|
G||-10-0-0--00--0h2-2-x-0h2-2-x-0-2h5------0h2-2--x0h2----------------------|
C||-10-0-0--00--0h2-2-x-0h2-2-x------------0h2-2--x0h2----------------------|


D||-------------------------------------------------------------------------|
A||-------------------------------------------------------------------------|
F||-------------------------------------------------------------------------|
C||-0h2-2-x-0h2-2-x-------5-4--0h2-2--x0h2----------------------------------|
G||-0h2-2-x-0h2-2-x-0-2h5------0h2-2--x0h2----------------------------------|
C||-0h2-2-x-0h2-2-x------------0h2-2--x0h2----------------------------------|

[END] 
Thanks for checking out my tab! Make sure you check out my channel and cover videos! Thank you! 
Добавлено: 02.05.2014
Другие материалы по этой песне:

Страница создана 30.03.2014
http://primanota.ru/of-mice-and-men/would-you-still-be-there-chords.htm
Привет, Гость.
Предлагаем пройти революционный курс по гитаре.
Подарок от PrimaNota.Ru, забирай!