PrimaNota.ru - самый крупный в мире бесплатный архив песенных текстов, аккордов, табулатур и нот


Nujabes - Kumomi - бас-таба, видео

Регистрация Запомнить меня
Войти через:  Facebook Google Twitter Vk Yandex Mail.ru

Nujabes - Kumomi - бас-таба, видео

Печатать
Просмотров: 85
Kunomi by Nujabes



Main Riff:
G|-----------------------------------------------------|
D|--------11--11--11-----------11\13--11---------------|
A|-9--(9)------------11----11------------11----11-(11)-|
E|----------------------9--------------------9---------|

G|-----------------------------------------------------|
D|--------------11-------------11\13--11---------------|
A|-9--(9)-9---9-----11-----11------------11----11-(11)-|
E|----------------------9--------------------9---------|

G|---------------------------------------------------|
D|---------------------------11\13--11---------------|
A|-9--(9)-9---9--9-11----11------------11----11-(11)-|
E|--------------------9--------------------9---------|

G|----------------------------------------------------||
D|----------------------------11\13--11---------------||
A|-9--(9)-9---9--11-11----11------------11----11-(11)-||
E|---------------------9--------------------9---------||


Break:
G|----------------------------------||
D|----------------------------------||
A|----------------------------------||
E|-11----9-11-----9-11----9-11----9-||




It's hard to hear what's going on in the break exactly,
and near the end of the song there's more improvising
on the Main Riff

Hope this is helpful


Добавлено: 30.09.2015
Вам также может быть интересно:
Другие материалы по этой песне:
  • Аккорды и текст

Страница создана 30.09.2015
http://primanota.ru/nujabes/kumomi-chords.htm
Привет, Гость.
Предлагаем пройти революционный курс по гитаре.
Подарок от PrimaNota.Ru, забирай!