PrimaNota.ru - самый крупный в мире бесплатный архив песенных текстов, аккордов, табулатур и нот


Nujabes - Aruarian Dance - таба, видео

Регистрация Запомнить меня
Войти через:  Facebook Google Twitter Vk Yandex Mail.ru

Nujabes - Aruarian Dance - таба, видео

Печатать
Просмотров: 393
Nujabes - Aruarian Dance

by: the4lmnts

intro:
e|------9----9-------------------7/12---9---9-------7-------0---|
B|-----7--------7--------------------------------7--------0-----|
G|----7----7-----7------------------------------7---------------|
D|---7----7-------7------6---------------------7-------6--------|
A|--9-----------------------------------------------4-----------|
E|-7--------------------0-------------------7-------------------|

e|-5-------7-----------2---------2------------------------|
B|-----7-----6------------------2---2---------1---5/10--9-|
G|----6--------7-----------2---2-----4-------1------------|
D|---7-----------6-------2----2-------2-----2-------------|
A|-5-------------------2-------------------0--------------|
E|---------0----------------------------------------------|

e|-------2--------|
B|-----2----2-----|
G|-----2------4---|
D|---2----------2-|
A|-0--------------|
E|----------------| <<(repeated several times)


main riff:
e|-9---------9-----------7/12---9--|
B|----------7--7-------------------|
G|-----7---7-----7-----------------|
D|---7----7--------7---6-----------|
A|---------------------------------|
E|-7------------------0------------| <<(repeated several times)

riff after main riff:
e|----9---9---7---7---5---5---4-----14--------|
B|---7---7---5---5---3---3---3----------------|
G|--7---7---6---6---4---4---3-----11----------|
D|-7---7---6---6---4---4---2------------------|
A|--------------------------------------------|
E|--------------------------------------------|

bridge riff:
e|-------2--2-----------2-------4-|
B|-----3------3-------3-------5---|
G|---1----------1---2-------4-----|
D|--------------------------------|
A|-2--------------2-------4-------|
E|--------------------------------| <<(repeated several times)


i didn't show how many times to repeat each riff and what order to play them.  just 
to the song for that.
have fun =)
Добавлено: 30.06.2012
Другие материалы по этой песне:

Страница создана 30.04.2012
http://primanota.ru/nujabes/aruarian-dance-chords.htm
Привет, Гость.
Предлагаем пройти революционный курс по гитаре.
Подарок от PrimaNota.Ru, забирай!