PrimaNota.ru - самый крупный в мире бесплатный архив песенных текстов, аккордов, табулатур и нот


Nothing But Thieves - Ban All The Music - таба, видео

Регистрация Запомнить меня
Войти через:  Facebook Google Twitter Vk Yandex Mail.ru

Nothing But Thieves - Ban All The Music - таба, видео

Печатать
Просмотров: 325
-------------------------------------------------------------------------------
                    Nothing But Thieves - Ban All the Music
-------------------------------------------------------------------------------
Tabbed by: Letsgo23
E-mail: dylanlee13@ymail.com

Tuning: Drop D

Pretty sure this is right, not sure about one of the parts though, if you know
the part then feel free to add a comment. This song can be played in Standard 
tuning but I prefer it in Drop D

INTRO/VERSE:

e|---------------------------------------------------------------------------|
B|---------------------------------------------------------------------------|
G|---------------------------------------------------------------------------|
D|-3-----3-----3-----3-----3---3---3-----3-----3---5-5-5-3-3-3-3-------------| x 4
A|---------------------------------------------------------------------------|
D|---5-5---5-5---5-5---5-5---5---5---5-5---5-5---5---------------------------|

CHORUS:

e|---------------------------------------------------------------------------|
B|---------------------------------------------------------------------------|
G|---------------------------------------------------------------------------|
D|---5-5-5---3-3-3---2-2-2---2-2-2---2-2-3-3-3-3-----------------------------| x 2
A|---------------------------------------------------------------------------|
D|-5-------3-------2-------2-------2-----------------------------------------|

e|---------------------------------------------------------------------------|
B|---------------------------------------------------------------------------|
G|-7-7-7-7-5-5-5-5-4-4-4-4-3-3-3-3-------------------------------------------|
D|-7-7-7-7-5-5-5-5-4-4-4-4-3-3-3-3-------------------------------------------| x 1
A|-5-5-5-5-3-3-3-3-2-2-2-2-1-1-1-1-------------------------------------------|
D|---------------------------------------------------------------------------|

e|---------------------------------------------------------------------------|
B|---------------------------------------------------------------------------|
G|---------------------------------------------------------------------------|
D|---5-5-5---3-3-3---2-2-2---2-2-2---2-2-------------------------------------| x 1
A|---------------------------------------------------------------------------|
D|-5-------3-------2-------2-------2-----------------------------------------|

VERSE x 4

CHORUS:

e|---------------------------------------------------------------------------|
B|---------------------------------------------------------------------------|
G|---------------------------------------------------------------------------|
D|---5-5-5---3-3-3---2-2-2---2-2-2---2-2-3-3-3-3-----------------------------| x 2
A|---------------------------------------------------------------------------|
D|-5-------3-------2-------2-------2-----------------------------------------|

e|---------------------------------------------------------------------------|
B|---------------------------------------------------------------------------|
G|-7-7-7-7-5-5-5-5-4-4-4-4-3-3-3-3-------------------------------------------|
D|-7-7-7-7-5-5-5-5-4-4-4-4-3-3-3-3-------------------------------------------| x 1
A|-5-5-5-5-3-3-3-3-2-2-2-2-1-1-1-1-------------------------------------------|
D|---------------------------------------------------------------------------|

e|---------------------------------------------------------------------------|
B|---------------------------------------------------------------------------|
G|---------------------------------------------------------------------------|
D|---5-5-5---3-3-3---2-2-2---2-2-2---2-2-3-3-3-3-----------------------------| x 1
A|---------------------------------------------------------------------------|
D|-5-------3-------2-------2-------2-----------------------------------------|

BREAK x 8

Not sure about this part, but I know it starts on 10. I will try figure this 
out for you guys. If you know it add a comment to let people know and I'll 
add it to that tab. You'll also get credit for contributing!

e|---------------------------------------------------------------------------|
B|---------------------------------------------------------------------------|
G|---------------------------------------------------------------------------|
D|---------------------------------------------------------------------------|
A|-10b Continuously pick ----------------------------------------------------|
D|---------------------------------------------------------------------------|

CHORUS:

e|---------------------------------------------------------------------------|
B|---------------------------------------------------------------------------|
G|---------------------------------------------------------------------------|
D|---5-5-5---3-3-3---2-2-2---2-2-2---2-2-3-3-3-3-----------------------------| x 4
A|---------------------------------------------------------------------------|
D|-5-------3-------2-------2-------2-----------------------------------------|

e|---------------------------------------------------------------------------|
B|---------------------------------------------------------------------------|
G|-7-7-7-7-5-5-5-5-4-4-4-4-3-3-3-3-------------------------------------------|
D|-7-7-7-7-5-5-5-5-4-4-4-4-3-3-3-3-------------------------------------------| x 1
A|-5-5-5-5-3-3-3-3-2-2-2-2-1-1-1-1-------------------------------------------|
D|---------------------------------------------------------------------------|

e|---------------------------------------------------------------------------|
B|---------------------------------------------------------------------------|
G|---------------------------------------------------------------------------|
D|---5-5-5---3-3-3---2-2-2---2-2-2---2-2-2-----------------------------------| x 1
A|---------------------------------------------------------------------------|
D|-5-------3-------2-------2-------------------------------------------------|

************************************

| /   slide up
| \   slide down
| h   hammer-on
| p   pull-off
| ~   vibrato
| +   harmonic
| x   Mute note
| b   Bend
| pb  Pre-bend
| br  Bend release
| pbr Pre-bend release
| brb Bend release bend

************************************
Добавлено: 05.08.2015
Другие материалы по этой песне:
  • Аккорды и текст

Страница создана 05.08.2015
http://primanota.ru/nothing-but-thieves/ban-all-music-chords.htm
Привет, Гость.
Предлагаем пройти революционный курс по гитаре.
Подарок от PrimaNota.Ru, забирай!