PrimaNota.ru - самый крупный в мире бесплатный архив песенных текстов, аккордов, табулатур и нот


Nothing But Thieves - Hanging - аккорды и текст, видео

Регистрация Запомнить меня
Войти через:  Facebook Google Twitter Vk Yandex Mail.ru

Nothing But Thieves - Hanging - аккорды и текст, видео

Печатать
Просмотров: 253
Hanging
Nothing But Thieves
It's pretty rough cos it took me about five minutes. 

Fm, G#, A# in the verse. Guitar kicks in towards the ends of the verse. 

Chorus is Fm, Cm and A#. 



Solo goes somethin like: 

e|--------------------------------1p0----------------------------------------|
B|------------------------------------1--------------------------------------|
G|-5-4~--4-3~---0-3p0-3p0-5p0-3p0--------------------------------------------|
D|---------------------------------------------------------------------------|
A|---------------------------------------------------------------------------|
E|---------------------------------------------------------------------------|

e|--------------6-6-6-6-5-------------------------------------1p0------------|
B|------------------------6---------6^----------------------------1----------|
G|-5-5~--5-5~-------------------5-4----4-3--0-3p0-3p0-5p0-3p0----------------|
D|---------------------------------------------------------------------------|
A|---------------------------------------------------------------------------|
E|---------------------------------------------------------------------------|

e|--------------15----15----15-18------------15----15------------------------|
B|-13-13-13-13----16----16---------------------16----16--18^-----------------|
G|------------------17----17-----17-17-17-17-----17----17--------------------|
D|---------------------------------------------------------------------------|
A|---------------------------------------------------------------------------|
E|---------------------------------------------------------------------------|

I can't hear the mini bit after the solo before the last chorus very well. 
Sounds like broken chords within the key. 
Добавлено: 22.09.2015
Другие материалы по этой песне:
  • Аккорды и текст

Страница создана 22.09.2015
http://primanota.ru/nothing-but-thieves/hanging-chords.htm
Привет, Гость.
Предлагаем пройти революционный курс по гитаре.
Подарок от PrimaNota.Ru, забирай!