PrimaNota.ru - самый крупный в мире бесплатный архив песенных текстов, аккордов, табулатур и нот


Nothing But Thieves - Itch - таба, видео

Регистрация Запомнить меня
Войти через:  Facebook Google Twitter Vk Yandex Mail.ru

Nothing But Thieves - Itch - таба, видео

Печатать
Просмотров: 396
-------------------------------------------------------------------------------
                             Itch - Nothing But Thieves
-------------------------------------------------------------------------------
Tabbed by: Bart Vonk


Tuning: Standard

Intro
e|-------------------------------------------------------------------------|
B|-------------------------------------------------------------------------|
G|----------16-------15-----------------------16-------15------------------|
D|----14-------14-------14--------------14-------14-------14---------------|
A|-16----16-------16-----------------16----16-------16---------------------|
E|-------------------------------------------------------------------------|

e|-------------------------------------------------------------------------|
B|-------------------------------------------------------------------------|
G|----------16-------15-----------------------16-------15------------------|
D|----14-------14-------14--------------14-------14-------14---------------|
A|-16----16-------16-----------------16----16-------16---------------------|
E|-------------------------------------------------------------------------|

Verse 4x
e|-------------------------------------------------------------------------|
B|-------------------------------------------------------------------------|
G|----------16-------15-----------------------16-------15------------------|
D|----14-------14-------14--------------14-------14-------14---------------|
A|-16----16-------16-----------------16----16-------16---------------------|
E|-------------------------------------------------------------------------|

e|-------------------------------------------------------------------------|
B|-------------------------------------------------------------------------|
G|----------16----------15-----------------15-------15---------------------|
D|----14-------14----14-------14--------14-------14-------14---------------|
A|-16----16-------16-------16--------16-------16-------16------------------|
E|-------------------------------------------------------------------------|

Pre-Chorus
e|-9-9-9-9-9-9-9-9----9-9-9-9-9-9-9-9--------------------------------------|
B|-9-9-9-9-9-9-9-9----9-9-9-9-9-9-9-9--------------------------------------|
G|-6-6-6-6-6-6-6-6----6-6-6-6-6-6-6-6--------------------------------------|
D|-------------------------------------------------------------------------|
A|-------------------------------------------------------------------------|
E|-------------------------------------------------------------------------|

Chorus
Guitar 1
e|-------------------------------------------------------------------------|
B|-------------------------------------------------------------------------|
G|--------4-4--4-----------4-4-x-x-x-x-------------------------------------|
D|-7-2-4--4-4--4---11-4-2--4-4-x-x-x-x--7-2-4--4-4--4---11-4-2--2-2--2-----|
A|-7-2-4--2-2--2---11-4-2--2-2-x-x-x-x--7-2-4--4-4--4---11-4-2--2-2--2-----|
E|-5-0-2-----------9--2-0---------------5-0-2--2-2--2---9--2-0--0-0--0-----|

e|------------------------------------12---12--12-----------6---6---6------|
B|------------------------------10------11---11---11----7-5---5---5---5----|
G|--------4-4--4-----------4-4----9-11----------------6--------------------|
D|-7-2-4--4-4--4---11-4-2--4-4---------------------------------------------|
A|-7-2-4--2-2--2---11-4-2--2-2---------------------------------------------|
E|-5-0-2-----------9--2-0--------------------------------------------------|

e|-------------------------------------------------------------------------|
B|-------------------------------------------------------------------------|
G|--------4-4--4-----------4-4-x-x-x-x-------------------------------------|
D|-7-2-4--4-4--4---11-4-2--4-4-x-x-x-x--7-2-4--4-4--4----------------------|
A|-7-2-4--2-2--2---11-4-2--2-2-x-x-x-x--7-2-4--4-4--4----------------------|
E|-5-0-2-----------9--2-0---------------5-0-2--2-2--2----------------------|

Guitar 2
e|------------------------------------12---12--12-----------6---6---6------|
B|------------------------------10------11---11---11----7-5---5---5---5----|
G|--------4-4--4-----------4-4----9-11----------------6--------------------|
D|-7-2-4--4-4--4---11-4-2--4-4---------------------------------------------|
A|-7-2-4--2-2--2---11-4-2--2-2---------------------------------------------|
E|-5-0-2-----------9--2-0--------------------------------------------------|

e|------------------------------------12---12--12--------------------------|
B|------------------------------10------11---11---11-----------------------|
G|--------4-4--4-----------4-4----9-11-------------------------------------|
D|-7-2-4--4-4--4---11-4-2--4-4---------------------------------------------|
A|-7-2-4--2-2--2---11-4-2--2-2---------------------------------------------|
E|-5-0-2-----------9--2-0--------------------------------------------------|

Verse
e|-------------------------------------------------------------------------|
B|-------------------------------------------------------------------------|
G|----------16-------15-----------------------16-------15------------------|
D|----14-------14-------14--------------14-------14-------14---------------|
A|-16----16-------16-----------------16----16-------16---------------------|
E|-------------------------------------------------------------------------|

e|-------------------------------------------------------------------------|
B|-------------------------------------------------------------------------|
G|----------16-------15-----------------------16-------15------------------|
D|----14-------14-------14--------------14-------14-------14---------------|
A|-16----16-------16-----------------16----16-------16---------------------|
E|-------------------------------------------------------------------------|

e|-------------------------------------------------------------------------|
B|-------------------------------------------------------------------------|
G|----------16-------15-----------------------16-------15------------------|
D|----14-------14-------14--------------14-------14-------14---------------|
A|-16----16-------16-----------------16----16-------16---------------------|
E|-------------------------------------------------------------------------|

e|-------------------------------------------------------------------------|
B|-------------------------------------------------------------------------|
G|----------16----------15-----------------15-------15---------------------|
D|----14-------14----14-------14--------14-------14-------14---------------|
A|-16----16-------16-------16--------16-------16-------16------------------|
E|-------------------------------------------------------------------------|

e|-------------------------------------------------------------------------|
B|-------------------------------------------------------------------------|
G|----------16-------15-----------------------16-------15------------------|
D|----14-------14-------14--------------14-------14-------14---------------|
A|-16----16-------16-----------------16----16-------16---------------------|
E|-------------------------------------------------------------------------|

e|-------------------------------------------------------------------------|
B|-------------------------------------------------------------------------|
G|----------16----------15-----------------15-------15---------------------|
D|----14-------14----14-------14--------14-------14-------14---------------|
A|-16----16-------16-------16--------16-------16-------16------------------|
E|-------------------------------------------------------------------------|

e|-------------------------------------------------------------------------|
B|-------------------------------------------------------------------------|
G|----------16-------15-----------------------16-------15------------------|
D|----14-------14-------14--------------14-------14-------14---------------|
A|-16----16-------16-----------------16----16-------16---------------------|
E|-------------------------------------------------------------------------|

e|-------------------------------------------------------------------------|
B|-------------------------------------------------------------------------|
G|----------16----------15-----------------15-------15---------------------|
D|----14-------14----14-------14--------14-------14-------14---------------|
A|-16----16-------16-------16--------16-------16-------16------------------|
E|-------------------------------------------------------------------------|

e|-------------------------------------------------------------------------|
B|-------------------------------------------------------------------------|
G|-------------------------------------------------------------------------|
D|-------------------------------------------------------------------------|
A|-------------------------------------------------------------------------|
E|-------------------------------------------------------------------------|

e|-------------------------------------------------------------------------|
B|-------------------------------------------------------------------------|
G|-------------------------------------------------------------------------|
D|--------------------------------------------------------------9----------|
A|--------------------------------------------------------------9----------|
E|--------------------------------------------------------------7----------|

Chorus
Guitar 1
e|-------------------------------------------------------------------------|
B|-------------------------------------------------------------------------|
G|--------4-4--4-----------4-4-x-x-x-x-------------------------------------|
D|-7-2-4--4-4--4---11-4-2--4-4-x-x-x-x--7-2-4--4-4--4---11-4-2--2-2--2-----|
A|-7-2-4--2-2--2---11-4-2--2-2-x-x-x-x--7-2-4--4-4--4---11-4-2--2-2--2-----|
E|-5-0-2-----------9--2-0---------------5-0-2--2-2--2---9--2-0--0-0--0-----|

e|-------------------------------------------------------------------------|
B|-------------------------------------------------------------------------|
G|--------4-4--4-----------4-4-x-x-x-x-------------------------------------|
D|-7-2-4--4-4--4---11-4-2--4-4-x-x-x-x--7-2-4--4-4--4---11-4-2--2-2--2-----|
A|-7-2-4--2-2--2---11-4-2--2-2-x-x-x-x--7-2-4--4-4--4---11-4-2--2-2--2-----|
E|-5-0-2-----------9--2-0---------------5-0-2--2-2--2---9--2-0--0-0--0-----|

e|-------------------------------------------------------------------------|
B|-------------------------------------------------------------------------|
G|-------------------------------------------------------------------------|
D|-7-2-4-------------------------------------------------------------------|
A|-7-2-4-------------------------------------------------------------------|
E|-5-0-2-------------------------------------------------------------------|

Guitar 2
e|------------------------------------12---12--12-----------6---6---6------|
B|------------------------------10------11---11---11----7-5---5---5---5----|
G|--------4-4--4-----------4-4----9-11----------------6--------------------|
D|-7-2-4--4-4--4---11-4-2--4-4---------------------------------------------|
A|-7-2-4--2-2--2---11-4-2--2-2---------------------------------------------|
E|-5-0-2-----------9--2-0--------------------------------------------------|

e|------------------------------------12---12--12-----------6---6---6------|
B|------------------------------10------11---11---11----7-5---5---5---5----|
G|--------4-4--4-----------4-4----9-11----------------6--------------------|
D|-7-2-4--4-4--4---11-4-2--4-4---------------------------------------------|
A|-7-2-4--2-2--2---11-4-2--2-2---------------------------------------------|
E|-5-0-2-----------9--2-0--------------------------------------------------|

e|-------------------------------------------------------------------------|
B|-------------------------------------------------------------------------|
G|-------------------------------------------------------------------------|
D|-7-2-4-------------------------------------------------------------------|
A|-7-2-4-------------------------------------------------------------------|
E|-5-0-2-------------------------------------------------------------------|

Bridge
e|-------------------------------------------------------------------------|
B|-------------------------------------------------------------------------|
G|-------------------------------------------------------------------------|
D|-------2-----------2-------------2---------------------------------------|
A|-4-4-4--4----2-2-2---2-----1-1-1---1-------------------------------------|
E|-----------------------------------------2-2-2-0-2-0---------------------|

Solo
e|---------------------------12---------------------------------------------|
B|-----------------------------12-10--------11-------11----11----11----11---|
G|-/9-/9-/9-/9-/9-/9-/9-/9-/9--------9-9-9--13b15--pb15--pb15--pb15--pb15-9-|
D|--------------------------------------------------------------------------|
A|--------------------------------------------------------------------------|
E|--------------------------------------------------------------------------|

Chorus
Guitar 1
e|-------------------------------------------------------------------------|
B|-------------------------------------------------------------------------|
G -------------------------------------------------------------------------|
D --------------------------------------7-2-4--4-4--4---11-4-2--2-2--2-----|
A|--------------------------------------7-2-4--4-4--4---11-4-2--2-2--2-----|
E---------------------------------------5-0-2--2-2--2---9--2-0--0-0--0-----|

e|-------------------------------------------------------------------------|
B|-------------------------------------------------------------------------|
G|--------4-4--4-----------4-4-x-x-x-x-------------------------------------|
D|-7-2-4--4-4--4---11-4-2--4-4-x-x-x-x--7-2-4--4-4--4---11-4-2--2-2--2-----|
A|-7-2-4--2-2--2---11-4-2--2-2-x-x-x-x--7-2-4--4-4--4---11-4-2--2-2--2-----|
E|-5-0-2-----------9--2-0---------------5-0-2--2-2--2---9--2-0--0-0--0-----|

e|-------------------------------------------------------------------------|
B|-------------------------------------------------------------------------|
G|-------------------------------------------------------------------------|
D|-7-2-4-------------------------------------------------------------------|
A|-7-2-4-------------------------------------------------------------------|
E|-5-0-2-------------------------------------------------------------------|

Guitar 2
e|------------------------------------12---12--12-----------6---6---6------|
B|------------------------------10------11---11---11----7-5---5---5---5----|
G|---------------------------------9-11----------------6-------------------|
D|-------------------------------------------------------------------------|
A|-------------------------------------------------------------------------|
E|-------------------------------------------------------------------------|

e|------------------------------------12---12--12-----------6---6---6------|
B|------------------------------10------11---11---11----7-5---5---5---5----|
G|--------4-4--4-----------4-4-----9-11----------------6-------------------|
D|-7-2-4--4-4--4---11-4-2--4-4---------------------------------------------|
A|-7-2-4--2-2--2---11-4-2--2-2---------------------------------------------|
E|-5-0-2-----------9--2-0--------------------------------------------------|

e|-------------------------------------------------------------------------|
B|-------------------------------------------------------------------------|
G|-------------------------------------------------------------------------|
D|-7-2-4-------------------------------------------------------------------|
A|-7-2-4-------------------------------------------------------------------|
E|-5-0-2-------------------------------------------------------------------|

************************************

| /   slide up
| \   slide down
| h   hammer-on
| p   pull-off
| ~   vibrato
| +   harmonic
| x   Mute note
| b   Bend
| pb  Pre-bend
| br  Bend release
| pbr Pre-bend release
| brb Bend release bend

************************************
Добавлено: 22.09.2015
Другие материалы по этой песне:
  • Аккорды и текст

Страница создана 22.09.2015
http://primanota.ru/nothing-but-thieves/itch-chords.htm
Привет, Гость.
Предлагаем пройти революционный курс по гитаре.
Подарок от PrimaNota.Ru, забирай!