PrimaNota.ru - самый крупный в мире бесплатный архив песенных текстов, аккордов, табулатур и нот


Norma Jean - The Anthem Of Angry Brides - таба, бас-таба, видео

Регистрация Запомнить меня
Войти через:  Facebook Google Twitter Vk Yandex Mail.ru

Norma Jean - The Anthem Of Angry Brides - таба, бас-таба, видео

Печатать
Просмотров: 173
Уроки эстрадного вокала в Санкт-Петербурге
___________________Guitar 1__________________
6|-------------------9-7-0-10-0-7-0----------|
5|-9-6-6h9-7p0-------------------------------|
4|-------------------------------------------| x19 + lil pause... then 1x
3|-------------------------------------------|
2|-------------------------------------------|
1|-------------------------------------------|


6|-----------------------------------------------------|
5|-----------------------------------------------------|
4|-----------------------------------------------------|
3|-3-3-322-3-3-322-3-3-222-----------------------------|
2|-----------------------------------------------------|
1|-3-3-322-3-3-322-3-3-322-----------------------------|
                                                     |
                                                     |---x2
6|------------------------------7-6-7/11-11------------|
5| -8-0---8-7-0---7-6-0--------------------------------|
-|-----------------------------------------------------|
3|-----------------------------------------------------|
2|-----------------------------------------------------|
1|-----------------------------------------------------|


6|-------------------------------------------|
5|-------------------------------------------|
4|-------------------------------------------|
3|-0~~~~-------------------------------------|
2|-0~~~~-------------------------------------|
1|-0~~~~-------------------------------------|


6|-------------------9-7-0-10-0-7-0----------|
5|-9-6-6h9-7p0-------------------------------|
4|-------------------------------------------| x7+ lil pause... then 1x
3|-------------------------------------------|
2|-------------------------------------------|
1|-------------------------------------------|


6|-----------------------------------------------------|
5|-----------------------------------------------------|
4|-----------------------------------------------------|
3|-3-3-322-3-3-322-3-3-222-----------------------------|
2|-----------------------------------------------------|
1|-3-3-322-3-3-322-3-3-322-----------------------------|
                                                     |
                                                     |---x2
6|------------------------------7-6-7/11-11------------|
5| -8-0---8-7-0---7-6-0--------------------------------|
-|-----------------------------------------------------|
3|-----------------------------------------------------|
2|-----------------------------------------------------|
1|-----------------------------------------------------|


6|-------------------------------------------|
5|-------------------------------------------|
4|-------------------------------------------|
3|-------------------------------------------|
2|-0--0--0-0--0--000-------------------------|
1|-0--0--0-0--0--000-------------------------|
                 ***

6|-------------------------------------------|
5|-------------------------------------------|
4|-------------------------------------------|
3|-------------------------------------------|
2|-------------------------------------------|
1|-0-12-12-0-12-12-0-12-0-12-12-0-12-12------|


6|-------------------------------------------|
5|-------------------------------------------|
4|-------------------------------------------|
3|-------------------------------------------|
2|-0-0-0---0---0-0---0---0-0-0---------------|
1|-0-0-0---0---0-0---0---0-0-0---------------|


6|-------------------------------------------|
5|---10-10--10-10--10--10-10--10-------------|
4|---8--8---8--8---8---8--8---8--------------|
3|---7--7---7--7---7---7--7---7--------------|
2|-0------0------0---0------0----0-0-0-------|
1|-0------0------0---0------0----0-0-0-------|


6|-------------------------------------------|
5|-------------------------------------------|
4|-------------------------------------------|
3|-------------------------------------------|
2|-------------------------------------------|
1|----------1\very slow\15-------------------|


6|-------------------------------------------|
5|---10-10--10-10--10--10-10--10-------------|
4|---8--8---8--8---8---8--8---8--------------|
3|---7--7---7--7---7---7--7---7--------------|  x4
2|-0------0------0---0------0----0-0-0-------|
1|-0------0------0---0------0----0-0-0-------|


6|-------------------------------------------|
5|---10-10--10-10--9---9--9---8--------------|
4|---8--8---8--8---7---7--7---6--------------|
3|---7--7---7--7---6---6--6---5--------------|
2|-0------0------0---0------0----0-0-0-------|
1|-0------0------0---0------0----0-0-0-------|


6|--------------------------------------------|
5|---8--8---7--7---6---5--5---4--4------------|
4|---6--6---5--5---4---3--3---2--2------------|
3|---5--5---4--4---3---2--2---1--1------------|
2|-0------0------0---0------0------0-0-0-0~~~-|
1|-0------0------0---0------0------0-0-0-0~~~-|














__________________Guitar 2___________________
1|-0-0-00-0-0-00000|x2

1|-1-1-11-1-1-11111--4-4-44-4-4-44444|

6|-------------------------------------------|
5|-------------------------------------------|
4|-------------------------------------------|
3|-0~~~~-------------------------------------|
2|-0~~~~-------------------------------------|
1|-0~~~~-------------------------------------|


6|-------------------------------------------|
5|-------------------------------------------|
4|-7~~--10~--13~-----------------------------|
3|-------------------------------------------|
2|-5~~--8~---11~-----------------------------|
1|-0~~--0----0~~-----------------------------|


6|----------------12-10-0-13-0-10-0----------|
5|-12-9-9h12-9p0-----------------------------|
4|-------------------------------------------|
3|-------------------------------------------| x4
2|-------------------------------------------|
1|-------------------------------------------|


6|-------------------------------------------|
5|-------------------------------------------|
4|-------------------------------------------|
3|-------------------------------------------|
2|-0000000000000000--3333333-6666666---------|
1|-0000000000000000--3333333-6666666---------|


6|-------------------------------------------|
5|-------------------------------------------|
4|-------------------------------------------|
3|-------------------------------------------|
2|-0000000000000000--3333333-----------------|
1|-0000000000000000--3333333-----------------|


6|----------------12-10-0-13-0-10-0----------|
5|-12-9-9h12-9p0-----------------------------|
4|-------------------------------------------|
3|-------------------------------------------|
2|-------------------------------------------|
1|-------------------------------------------|


6|-------------------------------------------|
5|-------------------------------------------|
4|-------------------------------------------|
3|-3-3-322-3-3-322-3-3-222----6--6--6/4------| x2
2|----------------------------6--6--6/4------|
1|-3-3-322-3-3-322-3-3-322----6--6--6/4------|


1|-0-0-00-0-0-00000|x2

1|-1-1-11-1-1-11111--4-4-44-4-4-44444|



6|-------------------------------------------|
5|-------------------------------------------|
4|-------------------------------------------|
3|-------------------------------------------|
2|-0000000000000000--3333333-6666666---------|
1|-0000000000000000--3333333-6666666---------|


6|-------------------------------------------|
5|-------------------------------------------|
4|-------------------------------------------|
3|-------------------------------------------|
2|-0000000000000000--3333333-----------------|
1|-0000000000000000--3333333-----------------|


6|----------------12-10-0-13-0-10-0----------|
5|-12-9-9h12-9p0-----------------------------|
4|-------------------------------------------|
3|-------------------------------------------|
2|-------------------------------------------|
1|-------------------------------------------|


6|-------------------------------------------|
5|-------------------------------------------|
4|-------------------------------------------|
3|-3-3-322-3-3-322-3-3-222----6--6--6/4------| x2
2|----------------------------6--6--6/4------|
1|-3-3-322-3-3-322-3-3-322----6--6--6/4------|


6|-------------------------------------------|
5|-------------------------------------------|
4|-------------------------------------------|
3|-------------------------------------------|
2|-0--0--0-0--0--000-------------------------|
1|-0--0--0-0--0--000-------------------------|


6|-------------------------------------------|
5|---10-10--10-10--10--10-10--10-------------|
4|---8--8---8--8---8---8--8---8--------------|
3|---7--7---7--7---7---7--7---7--------------|
2|-0------0------0---0------0----0-0-0-------|
1|-0------0------0---0------0----0-0-0-------|


6|-------------------------------------------|
5|-------------------------------------------|
4|-------------------------------------------|
3|-------------------------------------------|
2|-------------------------------------------|
1|----------1\very slow\15-------------------|


6|-------------------------------------------|
5|---10-10--10-10--10--10-10--10-------------|
4|---8--8---8--8---8---8--8---8--------------|
3|---7--7---7--7---7---7--7---7--------------|  x4
2|-0------0------0---0------0----0-0-0-------|
1|-0------0------0---0------0----0-0-0-------|



6|-------------------------------------------|
5|---10-10--10-10--9---9--9---8--------------|
4|---8--8---8--8---7---7--7---6--------------|
3|---7--7---7--7---6---6--6---5--------------|
2|-0------0------0---0------0----0-0-0-------|
1|-0------0------0---0------0----0-0-0-------|


6|--------------------------------------------|
5|---8--8---7--7---6---5--5---4--4------------|
4|---6--6---5--5---4---3--3---2--2------------|
3|---5--5---4--4---3---2--2---1--1------------|
2|-0------0------0---0------0------0-0-0-0~~~-|
1|-0------0------0---0------0------0-0-0-0~~~-|
Добавлено: 30.07.2012
Другие материалы по этой песне:
  • Аккорды и текст

Страница создана 30.07.2012
http://primanota.ru/norma-jean/the-anthem-of-angry-brides-chords.htm
Привет, Гость.
Предлагаем пройти революционный курс по гитаре.
Подарок от PrimaNota.Ru, забирай!