PrimaNota.ru - самый крупный в мире бесплатный архив песенных текстов, аккордов, табулатур и нот


Norma Jean - Pretty Soon I Dont Know What But Something Is Going To Happen - таба, видео

Регистрация Запомнить меня
Войти через:  Facebook Google Twitter Vk Yandex Mail.ru

Norma Jean - Pretty Soon I Dont Know What But Something Is Going To Happen - таба, видео

Печатать
Просмотров: 127
Уроки эстрадного вокала в Санкт-Петербурге
  Norma Jean
  Pretty Soon, I Don't Know What, But Something Is Going To Happen
  Bless the Martyr and Kiss the Child
  tabbed by: !normajean!

   
  Ok. This is the whole song. It didnt take much to figure out cause this 
 song just repeats the same riffs over and over again. I'll tell you the 
 time everything starts, but you can get the timing and the patterns. 


|-------------------------------------|
|-------------------------------------|
|------------9--------9---------------|this is played at the beginning
|--7--------7--------7--------7-------|
|-0--------0--------0--------0-0------|
|-------------------------------------|

 
|----------------------|
|----------------------|
|----------------------|this is the pattern, you can figure out the timing
|-0-----0-----3-----0--|this starts at the beginning
|-0-----0-----3-----0--|
|-0-----0-----3-----0--|

|----------------------|
|---4----4-----4-----4-|
|-6--6-6---6-6---6-6---|this fades in at about 0:52
|----------------------|
|----------------------|
|----------------------|

 this starts at 1:32
|--------------------------------------------------------------------------|
|--------------------------------------------------------------------------|
|-6-66666-6666/9-99999-9999-14-1414141414-1414141414\13-1313131313-13131313|
|-x-xxxxx-xxxx/x-xxxxx-xxxx--x--xxxxxxxxx—-xxxxxxxxx\-x--xxxxxxxxx--xxxxxxx|
|-4-44444-4444/7-77777-7777-12-1212121212-1212121212\11-1111111111-11111111|
|--------------------------------------------------------------------------|
 

|-----------------|
|-----------------|
|-----------------|this comes in at 2:04
|-1-0-1-0-1-0-1-0-|
|-1-0-1-0-1-0-1-0-|
|-1-0-1-0-1-0-1-0-|
    .   .   .   .

|----------------------------------------|
|----------------------------------------|
|----------------------------------------|this starts at 2:34 and ends
|-0-000-00-0-00-0-000-00-0-00-0-000-00-0-|at 3:41
|-0-000-00-0-00-0-000-00-0-00-0-000-00-0-|
|-0-000-00-0-00-0-000-00-0-00-0-000-00-0-|
        ..   ..       ..   ..       ..   

|-----10------10----------10------10--|
|---14--14--14--14--14--14--14--14--14|
|-13------13------13--13------13------|this starts at 3:07
|-------------------------------------|
|-------------------------------------|
|-------------------------------------|
 then there are some pick slides

|---------------------|
|---------------------|
|---------------------|this starts at about 3:36 and ends at 4:01
|---------------------|
|-0-0-0-0-0-0-0-0-0-0-|
|-0-0-0-0-0-0-0-0-0-0-|
  . . . . . . . . . .

|-----------------------------------------------------|
|-----------------------------------------------------|
|-----------------------------------------------------|this starts at 4:01
|-0-0-0/6-6666-0-0-0/6-6666-0-0-0/6-6666-000000000000-|
|-0-0-0/6-6666-0-0-0/6-6666-0-0-0/6-6666-000000000000-|
|-0-0-0/6-6666-0-0-0/6-6666-0-0-0/6-6666-000000000000-|
                                         ............

|-----------------------------------------------------|
|-----------------------------------------------------|
|-----------------------------------------------------|this comes in at 4:10
|-1-0-0/6-6666-1-0-0/6-6666-1-0-0/6-6666-000000000000-|
|-1-0-0/6-6666-1-0-0/6-6666-1-0-0/6-6666-000000000000-|
|-1-0-0/6-6666-1-0-0/6-6666-1-0-0/6-6666-000000000000-|
                                         ............

|-----|
|-----|
|-7\6-|this also comes in at 4:10, but it is played at a certain time.
|-x\x-|You can figure it out.
|-5\4-|
|-----|


|---------------------|
|---------------------|
|---------------------|this starts at 5:01 and continues for a long time
|-0-0-0-0-0-0-0-0-0-0-|
|-0-0-0-0-0-0-0-0-0-0-|
|-0-0-0-0-0-0-0-0-0-0-|
  . . . . . . . . . .

|--------|
|--------|
|-777777-|this starts at 5:21
|-xxxxxx-|
|-555555-|(this is played randomly, you can figure out the pattern)
|--------|


|-----------------------------------------------------|
|-----------------------------------------------------|
|-----------------------------------------------------|this starts at 6:26
|-0-0-0/6-6666-0-0-0/6-6666-0-0-0/6-6666-000000000000-|
|-0-0-0/6-6666-0-0-0/6-6666-0-0-0/6-6666-000000000000-|
|-0-0-0/6-6666-0-0-0/6-6666-0-0-0/6-6666-000000000000-|
                                         ............

|-----------------------------------------------------|
|-----------------------------------------------------|
|-----------------------------------------------------|this comes in at 6:35
|-1-0-0/6-6666-1-0-0/6-6666-1-0-0/6-6666-000000000000-|
|-1-0-0/6-6666-1-0-0/6-6666-1-0-0/6-6666-000000000000-|
|-1-0-0/6-6666-1-0-0/6-6666-1-0-0/6-6666-000000000000-|
                                         ............

|-----|
|-----|
|-7\6-|this also comes in at 6:35, but it is played at a certain time.
|-x\x-|You can figure it out.
|-5\4-|
|-----|

|-------|
|-------|
|-14\13-|this starts at 6:51
|--x\-x-|
|-12\11-|
|-------|


|--------|
|--------|
|--------|they do this at 7:42 and keep doing it randomly
|-xxxxxx-|
|-xxxxxx-|
|-xxxxxx-|


|-----------------|
|-----------------|
|-----------------|this comes in at 7:58
|-1-0-1-0-1-0-1-0-|
|-1-0-1-0-1-0-1-0-|
|-1-0-1-0-1-0-1-0-|
    .   .   .   .

|---------------------------------------------|
|---------------------------------------------|
|---------------------------------------------|this starts at 8:32
|------0-------------1--------0-------------1-|
|-1/5--0---7777777p0-1---1/5--0---7777777p0-1-|
|------0-------------1--------0-------------1-|


|-------------------------------------|
|-------------------------------------|
|------------9--------9---------------|this starts at 9:20
|--7--------7--------7--------7-------|
|-0--------0--------0--------0-0------|
|-------------------------------------|

|----------------------|
|----------------------|
|----------------------|this is the pattern, you can figure out the timing
|-0-----0-----3-----0--|this starts at 9:20
|-0-----0-----3-----0--|
|-0-----0-----3-----0--|


|-------------------------------------|
|-------------------------------------|
|------------9--------9---------------|this starts at 9:44
|--7--------7--------7--------7-------|this is played clean, not distorted
|-0--------0--------0--------0-0------|
|-------------------------------------|

|---------------|
|---------------|
|---------------|this starts at 11:18,but is played lightly
|-7777--7\00-00-|
|-7777--7\00-00-|
|-7777--7\00-00-|
          .. ..

|-----------------|
|-----------------|
|-----------------|this starts at 11:52,this is played louder
|-7777-00-7\00-00-|
|-7777-00-7\00-00-|
|-7777-00-7\00-00-|
       ..   .. ..

|-----------------|
|-5555---5\-------|
|-8888---8\-------|one guitar starts this at 11:52
|------00----00-00|
|------00----00-00|
|------00----00-00|
       ..    .. ..

|--------------------------------------------|
|--------------------------------------------|this starts at 12:49
|-6666666666666666/99999999/1616161616161616-|im not too sure about this 
|-xxxxxxxxxxxxxxxx/xxxxxxxx/-xxxxxxxxxxxxxxx-|part but it sounds pretty 
|-4444444444444444/77777777/1414141414141414-|good
|--------------------------------------------|

|----------------------------------|
|----------------------------------|
|----------------------------------|this starts at 12:49
|-77777777777777779999999999999999-|
|-77777777777777779999999999999999-|
|-77777777777777779999999999999999-|


|----------|
|----------|
|----------|this starts at 13:32 and continues thoughout the song
|-7777770--|
|-7777770--|
|-7777770--|


|----------------------|
|---4----4-----4-----4-|
|-6--6-6---6-6---6-6---|this starts at about 13:32 and continues
|----------------------|throughout the song
|----------------------|
|----------------------|

/ slide up
\ slide down
. palm mute
p pull off

Finaly! That is a really long song. And an awesome one too.
This tab is probably 97.7896% percent right, and its the first
full song that i have submitted. So please rate!
Добавлено: 01.03.2012
Другие материалы по этой песне:
  • Аккорды и текст

Страница создана 01.03.2012
http://primanota.ru/norma-jean/pretty-soon-i-dont-know-what-but-something-is-going-to-happen-chords.htm
Привет, Гость.
Предлагаем пройти революционный курс по гитаре.
Подарок от PrimaNota.Ru, забирай!