PrimaNota.ru - самый крупный в мире бесплатный архив песенных текстов, аккордов, табулатур и нот


Nobuo Uematsu - Sending A Dream Into The Universe - таба, видео

Регистрация Запомнить меня
Войти через:  Facebook Google Twitter Vk Yandex Mail.ru

Nobuo Uematsu - Sending A Dream Into The Universe - таба, видео

Печатать
Просмотров: 124
Have a capo on the 3rd fret

|---0------0------0-------0--------0-------3-------------0-|
|1-----0------1-------0-------1--------3--------1--1--3--x-|
|2-----0------2-------0-------0--------4--------2--2-----1-|
|2-----0------3-------0-------2--------5--------3--0-----2-|
|0----------------------------3----------------------------|
|----------------------------------------------------------|


|---0-----0----0-2-3--0--------------2-0-2--2-4-5--2----2-2|
|-----3---1--------0-----0-(0-0)---------3------x----2--2-2|
|2-----------------0-------(0-0)---4-----2------x-------2-2|
|2--------2----------------(2-2)---4-----0------4-------4-4|
|0--------3------------------------2------------x----------|
|------------------0----------------------------2----------|

|0--2-45--7--8-7-10--8--5---------7---3----------1-0-0-0-0|
|---3--------x-------5----5---1-1-----0----5---3---0-0-0-0|
|---2--------x-------5--------2-2-----0----0---2---2-2-1-1|
|------------7-------x--------2-2-----0----0---3---2-2-0-0|
|------------8-------0------------------------------------|
|--------------------0------------------------------------|

|0-0-0-0----0-0-0-0-------3-3-3-3-------2-2-2-2-----------|
|2-2-2-2----1-1-1-1-------1-1-1-1-------3-3-3-3-----------|
|2-2-2-2----2-2-2-2-------0-0-0-0-------2-2-2-2-----------|
|-----------2-------------------------2-0-----------------|
|---------------------0-2-3--------2-3--------------------|
|----------0--------------------------------0-------------|


|---0-----0----0-2-3--0--------------2-0-2--2-4-5--2----2-2|
|-----3---1--------0-----0-(0-0)---------3------x----2--2-2|
|2-----------------0-------(0-0)---4-----2------x-------2-2|
|2--------2----------------(2-2)---4-----0------4-------4-4|
|0--------3------------------------2------------x----------|
|------------------0----------------------------2----------|

|0--2-45--7--8-7-10--8--5---------7---3--------1---0-0-0-0|
|---3--------x-------5----5---1-1-----0----5---3---0-0-0-0|
|---2--------x-------5--------2-2-----0----0---2---2-2-1-1|
|------------7-------x--------2-2-----0----0---3---2-2-0-0|
|------------8-------0------------------------------------|
|--------------------0------------------------------------|

|0-0-0-0----0-0-0-0-------3-3-3-3-------2-2-2-2-----------|
|2-2-2-2----1-1-1-1-------1-1-1-1-------3-3-3-3-----------|
|2-2-2-2----2-2-2-2-------0-0-0-0-------2-2-2-2-----------|
|-----------2-------------------------2-0-----------------|
|---------------------0-2-3--------2-3--------------------|
|----------0--------------------------------0-------------|
Добавлено: 13.06.2012
Другие материалы по этой песне:

Страница создана 13.06.2012
http://primanota.ru/nobuo-uematsu/sending-a-dream-into-the-universe-chords.htm
Привет, Гость.
Предлагаем пройти революционный курс по гитаре.
Подарок от PrimaNota.Ru, забирай!