PrimaNota.ru - самый крупный в мире бесплатный архив песенных текстов, аккордов, табулатур и нот


Nobuo Uematsu - Vincents Theme - таба, видео

Регистрация Запомнить меня
Войти через:  Facebook Google Twitter Vk Yandex Mail.ru

Nobuo Uematsu - Vincents Theme - таба, видео

Печатать
Просмотров: 328
Уроки эстрадного вокала в Санкт-Петербурге
Vincent's Theme
Final Fantasy VII
Composed by Nobuo Uematsu

Tuning: Standard

Tempo: 120


Intro:

e |---------1-----1-----|-3-----1-----1-----|-------1-----1-----|
B |----2--------2-----2-|-----2-----2-----2-|---1-------1-----1-|
G |-------2---2-----2---|---2-----2-----2---|-----2---2-----2---|
D |-0-------------------|-------------------|-0-----------------|
A |---------------------|-------------------|-------------------|
E |---------------------|-------------------|-------------------|

e |-3-----1-----1----|-------1-----1-----|-3-----1-----1-----|
B |-----1-----1----1-|---0-------0-----0-|-----0-----0-----0-|
G |---2-----2----2---|-----2---2-----2---|---2-----2-----2---|
D |------------------|-0-----------------|-------------------|
A |------------------|-------------------|-------------------|
E |------------------|-------------------|-------------------|

e |-------3-----1-----|-0----1-----3------|
B |-------------------|-------------------|
G |---3-2---2-3---2-3-|--2-3---2-3---2-3--|  Repeat All one time, But
D |-0-----------------|-------------------|  Omit the Last two Bars
A |-------------------|-------------------|  And Play…
E |-------------------|-------------------|

e |-------0-0-|
B |-----0---0-|
G |---2-----2-|
D |-0-------0-|
A |-----------|
E |-----------|

Main Body “Development”

e |-------------------|-------------------|-------------------|
B |-------2-----2-----|-------2-----2-----|-------2-----2-----|
G |-----5---5-----5---|-----4---4-----4---|-----3---3-----3---|
D |---4-------4-----4-|---4-------4-----4-|---4-------4-----4-|
A |-5-----------------|-5-----------------|-5-----------------|
E |-------------------|-------------------|-------------------|

e |-------------------|
B |-------2-----2-----|
G |-----4---4-----4---|   Repeat
D |---4-------4-----4-|
A |-5-----------------|
E |-------------------|

Main Body “Theme”

e |-5-----5-----5-----|-8-----6-----5-----|-3----3-----3-----|
B |-------------------|-------------------|---3----3-----3---|
G |---2-----2-----2---|-------------------|-----3----3-----3-|
D |-----4-----4-----4-|---7-4---7-4---7-4-|-5----------------|
A |-5-----------------|-------------------|------------------|
E |-------------------|-------------------|------------------|

e |-3-----3-----3-----|-3-----3-----3-----|-6-----5----3-----|
B |---3-----3-----3---|---2-----2-----2---|--------------2---|
G |-----3-----3-----3-|-----3-----3-----3-|---6----6-------3-|
D |-------------------|-4-4---------------|-----8----8-------|
A |-------------------|-------------------|-7----------------|
E |-3-----------------|-------------------|------------------|

e |-1-----1-----1-----|-1-----1-----1-----|-5-----5-----5-----|
B |---3-----3-----3---|---3-----3-----3---|-------------------|
G |-----2-----2-----2-|-----2-----2-----2-|---2-----2-----2---|
D |-0-----------------|-------------------|-----4-----4-----4-|
A |-------------------|-------------------|-5-----------------|
E |-------------------|-------------------|-------------------|

e |-8-----6-----5-----|-3-----3-----3-----|-6-----5-----3-----|
B |-------------------|---3-----3-----3---|---5-----5-----5---|
G |-------------------|-----3-----3-----3-|-----7-----7-----7-|
D |---7-4---7-4---7-4-|-------------------|-------------------|
A |-------------------|-5-----------------|-------------------|
E |-------------------|-------------------|-6-----------------|

E |-1-----1-----1-----|-1-----3-----4-----|-5-----5-----5-----|-5-|
B |-------------------|---1-0---3-1---3-0-|---5-----5-----5---|---|
G |---2-3---2-3---2-3-|-------------------|-----6-----6-----6-|---|
D |-0-----------------|-0-----0-----2-----|-------------------|---|
A |-------------------|-------------------|-0-----------------|---|
E |-------------------|-------------------|-------------------|---|

There you have it.  Just keep practicing if you can't play fast enough, start slower w/ 
metronome and then practice quicker and quicker as you go.  You'll get it.


Cheers!

—Z

Any questions?  Email me at myenchantingnightmare@gmail.com
Добавлено: 29.04.2012
Другие материалы по этой песне:

Страница создана 15.03.2012
http://primanota.ru/nobuo-uematsu/vincents-theme-chords.htm
Привет, Гость.
Предлагаем пройти революционный курс по гитаре.
Подарок от PrimaNota.Ru, забирай!