PrimaNota.ru - самый крупный в мире бесплатный архив песенных текстов, аккордов, табулатур и нот


Nobuo Uematsu - The Place Ill Return To Someday - таба, видео

Регистрация Запомнить меня
Войти через:  Facebook Google Twitter Vk Yandex Mail.ru

Nobuo Uematsu - The Place Ill Return To Someday - таба, видео

Печатать
Просмотров: 292
Уроки эстрадного вокала в Санкт-Петербурге
This TAB is my variation of Nobuo Uematsu-sama's composition.
The melody for the main theme of Final Fantasy IX-The Place I'll Return To 
Someday, is simply messing around with the Cmaj scale. It's really easy to play. 

So without further adue(I think that's how it's spelled...),
grab your Guitar and let's begin...

Tuning: Standard (E, A, D, G, B, e)
Legend: h=Hammer-on
        p=Pull-off
        /or\=Slide
        ~=Vibrato

e|----------------------7h8p7--------------------------------------------|
B|--------------8-10----------10-8----10------------------------8-10-----|
G|---7----9-10---------------------------10---9-7-5-/7----9-10-----------|
D|-----------------------------------------------------------------------|
A|-----------------------------------------------------------------------|
E|-----------------------------------------------------------------------|

|---7h8p7------------7-----------------------------7h8p7-----------------|
|---------10-10-9-10---9h10----------------8-10----------10-8----10------|
|-------------------------------7----9-10---------------------------10---|
|------------------------------------------------------------------------|
|------------------------------------------------------------------------|
|------------------------------------------------------------------------|

|------------------------------------------------------------------------|
|------------------------------------10b---------------------------------|
|-----9-7-5--/10----10-12-10-9-----------9~----12-10-9-9---\6-/7---7-----|
|------------------------------12-10-------------------------------------|
|------------------------------------------------------------------------|
|------------------------------------------------------------------------|

|---10-------10-8---7-----------------------8----8-----------------------|
|---------10----------10-8-10-6-8--/10-12--------------------------------|
|------------------------------------------------------------------------|
|------------------------------------------------------------------------|
|------------------------------------------------------------------------|
|------------------------------------------------------------------------|

|---10-------10-8---7----------------------------------------------------|
|---------10----------10-8----8------------------------------------------|
|--------------------------10----9---------------------------------------|
|----------------------------------11---/12----12------------------------|
|------------------------------------------------------------------------|
|------------------------------------------------------------------------|

|---10-------10-8---7-----------------------8----8-----------------------|
|---------10----------10-8-10-6-8--/10-12--------------------------------|
|------------------------------------------------------------------------|
|------------------------------------------------------------------------|
|------------------------------------------------------------------------|
|------------------------------------------------------------------------|

|---10-------10-8---7----------------------------------------------------|
|---------10----------10-8-------8---------------------------------------|
|--------------------------10----------9---------------------------------|
|-------------------------------------------11-------12~-----------------|
|------------------------------------------------------------------------|
|------------------------------------------------------------------------|
Добавлено: 06.07.2012
Другие материалы по этой песне:

Страница создана 15.03.2012
http://primanota.ru/nobuo-uematsu/the-place-ill-return-to-someday-chords.htm
Привет, Гость.
Предлагаем пройти революционный курс по гитаре.
Подарок от PrimaNota.Ru, забирай!